Cifra Club

Tritone

Edu Ardanuy

Cifrado: Principal (guitarra y guitarra eléctrica)
tono: A
E||-------------------------------|--------------------------------|
B||---------------------8-7-------|---10-8----------------------10-|
G||*-----------9-8-7--------------|-----------9-8------9-7---------|
D||*--7-8-9-10-------10-----------|--------10-----10-7-------------|
A||-------------------------------|--------------------------------|
E||-------------------------------|--------------------------------|

                                
-------------------------------|
--9-8-7------------------------|
--------8----------------------|
----------10-7-----------------|
---------------9-8-7-8-9-------|
-------------------------8~----|

                                                    
--------------------------------------------------||
--------------------------------------------------||
-------------------------12----------------------*||
----------------12-13-14----14-12-12-11--10--9---*||
----12-13-14-15-------------------10-9---8---7----||
--------------------------------------------------||

                                                                      
-----------------------------------|---------------------------------|
-----------------------------------|---------------------------------|
*----------------------------------|---------------------------------|
*----------------------------------|---------------------------------|
-----------7-6---------3---5-3-----|----3-------2-------1------------|
---5-6-7-8-----0-3-4-5---5-----5-3-|--5---5-4-3---4-3-2---3-2-1-3--5-|

                                                              
----------------------------|-------------------------------||
----------------------------|-------------------------------||
----------------------------|---------5-6-9----------------*||
----------------------------|-------7-------7--------------*||
---------7-6--6-7-8-9-------|-----6-----------10-9--8--7----||
---6-7-8--------------8~----|---5-------------10-9--8--7----||

                                                                  
-------------------------------|--9h14h9----11----9-9------------|
----------------------------12-|---------------12-----9h12-------|
-----------------------9h11----|---------------------------11----|
--------------------11---------|---------------------------------|
--9---------9h11h14------------|---------------------------------|
-------------------------------|---------------------------------|

                                                            
-----------------------------------|-----------------------|
-----------------------------------|-----------------------|
----8-11---------------------------|-----------------------|
---------11-11h9h11----------------|-----------------------|
--------------------11--9h11-------|-----------------------|
-----------------------------11----|----9h11-7----9~-------|

                                                                 
---------------------------------|------------14----------------|
-----------------12----12-11-9-7-|--------16--14----------------|
------------11-------------------|----------------13--11----11--|
-------11------9-----------------|-----------------------13-----|
----9-----9----------------------|------------------------------|
---------------------------------|------------------------------|
                                                                     
----------------------------------|---------------------------------|
----------------------------------|---------------------------------|
--13--11--------------11----------|---------------------------------|
----------------13----11h13h11----|--11-----------------------------|
-------------------13----------13-|-----13-11-9-11-9-11-9---11b-----|
----------------------------------|---------------------------------|

----------------------------9h12h16h19/|
-------------------------11------------|
-----------------9h11h13---------------|
--------------11-----------------------|
------9h11h13--------------------------|
---------------------------------------|

                                            
--18h16h12h9-------------------------------|
-------------11----------------------------|
----------------13h11h9------9----9/8------|
------------------------11-9---11-----11-9-|
-------------------------------------------|
-------------------------------------------|

                                                                          
--------------------------------------|----------------------------------|
--------------------------------------|----------------------------------|
--8-----------------------------------|--------------------13--11--13~---|
--8-----------------------------------|----------------------------------|
----11-9----11-9------9---------------|---------11h---9------------------|
---------11------11-9---11-9-7-9-7-9h-|----7-----------------------------|
--------------------------------------|----------------------------------|

                                            
----16b-----------16~-|-----------------19-|
----------------------|--------------------|
----------------------|--------------------|
----------------------|--------------------|
----------------------|--------------------|
----------------------|--------------------|

                                                   
--19r16-14----------------------------------------|
-----------19-14----------------------------------|
-----------------16-15-16-15----------------------|
-----------------------------16-14----14----------|
-----------------------------------16----16-14/13-|
--------------------------------------------------|

                                  
--------------------------------||
--------------------------------||
--------------------------------||
--------------------------------||
--14-13-------13----------------||
--------14-12----12-14~---------||
00:00 / 00:00
Otros videos de esta canción
Repetir
Otros videos de esta canción
Compositor no encontrado.
Colaboración y revisión:
  • Sergio William
107 exhibiciones
    • ½ Tono
    • A
    • Bb
    • B
    • C
    • Db
    • D
    • Eb
    • E
    • F
    • F#
    • G
    • Ab
  • Agregar a la lista
    00:00 / 00:00
    OK