Cifra Club

Lero Lero

Edu Lobo

Cifrado: Principal (guitarra y guitarra eléctrica)
Selo Cifra Club: esta cifra foi revisada para atender aos critérios oficiais da nossa Equipe de Qualidade.
tono: Cm
[Intro]

Parte 1 De 4
  Cm7
E|----------------------------------------|
B|----------------------------------------|
G|----------------------------------------|
D|1p0---3--1-----------1p0---3--1---------|
A|---3--------1---3-------3--------1---3--|
E|--------------3-------------------------|

Parte 2 De 4
  Cm7
E|----------------------------------------|
B|----------------------------------------|
G|----------------------------------------|
D|1p0---3--1-----------1p0---3--1---------|
A|---3--------1---3-------3--------1---3--|
E|--------------3-------------------------|

Parte 3 De 4
  Cm7
E|----------------------------------------|
B|----------------------------------------|
G|----------------------------------------|
D|1p0---3--1-----------1p0---3--1---------|
A|---3--------1---3-------3--------1---3--|
E|--------------3-------------------------|

Parte 4 De 4
  Cm7                          G5   Abm7M
E|----------------------------------------|
B|----------------------------------4-----|
G|----------------------------------4-----|
D|1p0---3--1-----------1-0----------5-----|
A|---3--------1---3--------3-1------------|
E|--------------3--------------3----4-----|

          Cm7
Sou brasileiro de estatura mediana
       C#7(9)      Cm7         G7(5+)           Cm7 C#7(9)
Gosto muito de fulana mas sicrana é quem me quer
          Cm7
Sou brasileiro de estatura mediana
       C#7(9)      Cm7         G7(5+)           Cm7 C#7(9)
Gosto muito de fulana mas sicrana é quem me quer

            Cm7             Bb          Ab
Porque no amor quem perde quase sempre ganha
      Gm7             F#7(6)       F7(6) G7(5+) Cm7
Veja só que coisa estranha, saia dessa se puder

            Cm7            G7(5+)        Cm7
Não guardo mágoa, não blasfemo, não pondero
       C#7(9)     Cm7       G7(5+)        Cm7 C#7(9)
Não tolero lero-lero devo nada pra ninguém
            Cm7            G7(5+)        Cm7
Não guardo mágoa, não blasfemo, não pondero
       C#7(9)     Cm7       G7(5+)        Cm7 C#7(9)
Não tolero lero-lero devo nada pra ninguém

           Cm7         Bb             Ab
Sou descansado, minha vida eu levo a muque
      Gm          F#7(6)       F7(6) G7(5+) Cm7
Do batente pro batuque, faço como me convém
         F7(6)
Eu sou poeta e não nego a minha raça
                                           Eb7M
Faço versos por pirraça e também por precisão
           D7(9+)        Am6(5+)     D7(9+)
De pé quebrado, verso branco, rima rica
     Am6(5+)     Ab7(6)                   G7(5+)
Negaceio, dou a dica, tenho a minha solução

      Cm7
Brasileiro, tatu-peba, taturana
        C#7(9)          Cm7      G7(5+)       Cm7 
Bom de bola, ruim de grana, tabuada sei de cor
          Cm7
Sou brasileiro, tatu-peba, taturana
        C#7(9)          Cm7      G7(5+)       Cm7 
Bom de bola, ruim de grana, tabuada sei de cor

            Cm7         Bb          Ab
Quatro vez sete vinte e oito noves fora
     Gm7        F#7(6)       F7(6)    G7(5+)  Cm7
Ou a onça me devora, ou no fim vou rir melhor
              F7(6)
Não entro em rifa, não adoço, não tempero
                                               Eb7M
Não remarco, marco zero, se falei não volto atrás
          D7(9+)       Am6(5+)       D7(9+)
Por onde passo deixo rastro, deixo fama
      Am6(5+)      Ab7(6)              G7(5+)
Desarrumo toda a trama, desacato Satanás

      Cm7
Brasileiro de estatura mediana
       C#7(9)      Cm7         G7(5+)           Cm7 C#7(9)
Gosto muito de fulana mas sicrana é quem me quer
      Cm7
Brasileiro de estatura mediana
       C#7(9)      Cm7         G7(5+)           Cm7 C#7(9)
Gosto muito de fulana mas sicrana é quem me quer

            Cm7             Bb          Ab
Porque no amor quem perde quase sempre ganha
      Gm7             F#7(6)       F7(6) G7(5+) Cm7
Veja só que coisa estranha, saia dessa se puder

          Cm7
Diz um ditado natural da minha terra
        C#7(9)             Cm7         G7(5+)      Cm7
Bom cabrito é o que mais berra, onde canta o sabiá
          Cm7
Diz um ditado natural da minha terra
        C#7(9)             Cm7         G7(5+)      Cm7
Bom cabrito é o que mais berra, onde canta o sabiá

        Cm7      Bb           Ab
Desacredito no azar da minha sina
      Gm7       F#7(6)         F7(6)   G7(5+) Cm7
Tico-tico de rapina, ninguém leva o meu fubá
        Cm7      Bb           Ab
Desacredito no azar da minha sina
      Gm7       F#7(6)         F7(6)   G7(5+) Cm7
Tico-tico de rapina, ninguém leva o meu fubá

[Fim]

  Cm7
E|----------------------------------------|
B|----------------------------------------|
G|----------------------------------------|
D|1p0---3--1-----------1p0---3--1---------|
A|---3--------1---3-------3--------1---3--|
E|--------------3-------------------------|
Otros videos de esta canción
    32.944 exhibiciones
      • ½ Tono
      • Am
      • Bbm
      • Bm
      • Cm
      • C#m
      • Dm
      • Ebm
      • Em
      • Fm
      • F#m
      • Gm
      • G#m
    • Agregar a la lista

    Afinación de cifrado

    Afinador online

      OK