Cifra Club

Zum-Zum

Edu Lobo

Cifrado: Principal (guitarra y guitarra eléctrica)
Selo Cifra Club: esta cifra foi revisada para atender aos critérios oficiais da nossa Equipe de Qualidade.
tono: Am
E|-X--X--X--X--------------------------------------------------------------------|
B|-0--0--0--6--------------------------------------------------------------------|
G|-5--4--7--7--------| repeat 6 times---------------------------------------------|
D|-5--5--7--6--------------------------------------------------------------------|
A|-X--X--X--7--------------------------------------------------------------------|
E|-5--5--7--X--------------------------------------------------------------------|


[Verse 2]

E|-X--X--X--X--X--X--1----------------------------------------------------------------|
B|-0--1--0--3--1--3--3----------------------------------------------------------------|
G|-5--2--2--4--3--2--1--------r| epeat twice--------------------------------------------|
D|-5--3--3--2--2--3--X----------------------------------------------------------------|
A|-X--X--X--3--3--2--X----------------------------------------------------------------|
E|-5--3--3--X--X--X--0----------------------------------------------------------------|


[Verse 3]

E|-X--X--X--X----------------------------------------------------------------------|
B|-0--0--0--6----------------------------------------------------------------------|
G|-5--4--7--7--------------r| epeat twice--------------------------------------------|
D|-5--5--7--6----------------------------------------------------------------------|
A|-X--X--X--7----------------------------------------------------------------------|
E|-5--5--7--X----------------------------------------------------------------------|
Otros videos de esta canción
    2.625 exhibiciones
      • ½ Tono
      • Am
      • Bbm
      • Bm
      • Cm
      • C#m
      • Dm
      • Ebm
      • Em
      • Fm
      • F#m
      • Gm
      • G#m
    • Agregar a la lista

    Afinación de cifrado

    Afinador online

      OK