Cifra Club

Eu Dúvido

Eduardo Costa

Cifrado: Principal (guitarra y guitarra eléctrica)
tono: D
[Intro] A  D  A  G  D  A 

E|--------------------------------------------------------|
B|---3-7-5----3-7-5--3-7-5---3-7/8-7--3-8-7--3-8-7--3-7-5-|
G|--------------------------------------------------------|
D|--------------------------------------------------------|
A|--------------------------------------------------------|
E|--------------------------------------------------------|

E|--------------------------------------------------------|
B|---5-5-5-5-7-7/8-7-5-3-2--3/5-3-------------------------|
G|--------------------------------------------------------|
D|--------------------------------------------------------|
A|--------------------------------------------------------|
E|--------------------------------------------------------|

E|--------------------------------------------------------|
B|--10-10-10-9-7-5--3-2-0---------------------------------|
G|-------------------------2-2/4-2------------------------|
D|----------------------------------2b-0------------------|
A|--------------------------------------------------------|
E|--------------------------------------------------------|

 D
Você pode revirar o mundo
                              A
Que não vai achar ninguém melhor que eu

Coração tá de ponta cabeça
 G                      D
Não entende como te perdeu

Tenho a sensação de estar vivendo
                               A
Uma cena louca em filme de terror

Sinto que também está sofrendo
G                        D
A mesma saudade o mesmo mal de amor

A
Eu duvido
                        D
Que você não me ama eu duvido
                          A
No calor dessa cama eu duvido
             A7                    D
Que em seus sonhos não chama por mim
A                                     D
Acredito que a paixão não morreu acredito
                       A
Seu desejo sou eu acredito
       G       A      D
Todo briga de amor é assim
00:00 / 00:00
Otros videos de esta canción
Repetir
Otros videos de esta canción
Composición de Alexandre / Fátima Leão / Netto
Colaboración y revisión:
3.619 vistas
    • ½ Tono
    • A
    • Bb
    • B
    • C
    • Db
    • D
    • Eb
    • E
    • F
    • F#
    • G
    • Ab
  • Agregar a la lista

    0 comentarios

    Ver todos los comentarios
    00:00 / 00:00
    OK