Cifra Club

Fogão de Lenha

Eduardo Costa

Tablatura: Principal (guitarra)
tono: D
[Intro] D  F#m  G  
        D  F#m  G

[Primeira Parte]

   D          F#m   G
Espere minha mãe estou voltando
     B7                      Em
Que falta faz pra mim um beijo seu
     G           F#7   Bm
O orvalho da manhã cobrindo as flores
    E7/4     E7          A7/4 A7
Um raio de luar que era só meu

   D            F#m     G
O sonho de grandeza, ó mãe querida
    B7            Em
Um dia separou você e eu
    G           F#7   Bm
Queria tanto ser alguém na vida
  E7/4           E7           A7/4  A7
Apenas sou mais um que se perdeu

[Refrão]

          D            D7            G
Pegue a viola, e a sanfona que eu tocava
          Em        A7              D  A7
Deixe um bule da café em cima do fogão
          D            D7        G
Fogão de lenha, e uma rede na varanda
        Em          A7                      D    
Arrume tudo mãe querida, que seu filho vai voltar

[Solo]

E|-----------------5-----3-----2----------------------|
B|-----------3-5/7---7/5---5/3---3---3p2---2-3--5-5/7-|
G|---------------------------------------4------------|
D|-----4/5-7------------------------------------------|
A|-5-7------------------------------------------------|
E|----------------------------------------------------|

E|-5-5h7-------10-10-10--9--9--9--7-7-7---3-5-6-5-3---|
B|-------5-----12-12-12--10-10-10-8-8-8-------------3-|
G|----------------------------------------------------|
D|----------------------------------------------------|
A|----------------------------------------------------|
E|----------------------------------------------------|

E|----------------------------10-12/14-12----10---9---|
B|--------------------7-10/12-------------------------|
G|----------------7/9---------------------------------|
D|-8/7-5----------------------------------------------|
A|-------7-5h7/9--------------------------------------|
E|----------------------------------------------------|

[Segunda Parte]

 D             F#m     G
Mãe eu lembro tanto a nossa casa
    Bm                     Em
As coisas que falou quando eu saí
 G             F#7     Bm          A9
Lembro do meu pai que ficou triste
   E7/4          E7             A7/4  A7
E nunca mais cantou depois que eu parti
 D          F#m    G
Hoje eu já sei, ó mãe querida
 B7                   Em
Nas lições da vida eu aprendi
    G              F#    Bm    A9
O que eu vim procurar aqui distante
    E7/4        E7            A7/4 A7
Eu sempre tive tudo e tudo está aí

[Refrão]

          D            D7            G
Pegue a viola, e a sanfona que eu tocava
          Em        A7              D  A7
Deixe um bule da café em cima do fogão
          D            D7        G
Fogão de lenha, e uma rede na varanda
        Em          A7                      D    
Arrume tudo mãe querida, que seu filho vai voltar

          D            D7        G
Fogão de lenha, e uma rede na varanda
        Em          A7                      D    
Arrume tudo mãe querida, que seu filho vai voltar
Colaboración y revision:
1.435 reproducciones
    • ½ Tono
    • A
    • Bb
    • B
    • C
    • Db
    • D
    • Eb
    • E
    • F
    • F#
    • G
    • Ab
  • Adicionar à lista

    0 comentarios

    Ver todos os comentários

    ¿Conseguiste tocar?

    8 Tocaram 6 Ainda não

    Grave um vídeo tocando Fogão de Lenha e nos envie!

    00:00 / 00:00
    outros vídeos desta música
    repetir qualidade Automático
    Outros vídeos desta música
    00:00 / 00:00
    Automático
    OK