Cifra Club

Saudade

Eduardo Costa

Cifrado: Principal (guitarra y guitarra eléctrica)
tono: G
[Intro]  G  C  F  C  G

E|--10-10-10-10-8-7-7h8-7-------------------|
B|------------------------8/10--12----------|
G|-7----------------------------------------|
D|------------------------------------------|
A|------------------------------------------|
E|------------------------------------------|

E|-10-10-10-10-8-7-7h8-7--------------------|
B|-----------------------10-8---------------|
G|-----------------------------7-9-7h9------|
D|------------------------------------------|
A|------------------------------------------|
E|------------------------------------------|

E|-7-7h8-7----------------------------------|
B|---------10-8-10-10/12--8-10/12-12-10/8-8-|
G|------------------------------------------|
D|------------------------------------------|
A|------------------------------------------|
E|------------------------------------------|

E|------------------------------------------|
B|------------------------------------------|
G|-7h9-7------------------------------------|
D|------------------------------------------|
A|------------------------------------------|
E|------------------------------------------|

[Primeira Parte]

   G
Você sempre fez os meus sonhos

Sempre soube dos meus segredos
              C    F  C
Já faz muito tempo
                         G
Eu nem me lembro quanto tempo faz

O meu coração não sabe contar os dias

E a minha cabeça já está tão vazia
        C          F  C
Mas a primeira vez
          G  
Ainda me lembro bem

[Pré-Refrão]

C            D              G
  Talvez eu seja no seu passado 
          C    
Mais uma página
G           C                  D
  Que foi, do seu diário arrancada

[Refrão]

 C              D
Sonho, choro e sinto
     G       D         C 
Que resta alguma esperança
G            C                  D
  Saudade, quero arrancar essa página
          G
Da minha vida

[Solo] G

E|-10-10-10-10-10-10-8-7-7h8----------------|
B|---------------------------8-8------------|
G|------------------------------------------|
D|------------------------------------------|
A|------------------------------------------|
E|------------------------------------------|

E|-10-10-10-...-12-12...--------------------|
B|------------------------------------------|
G|------------------------------------------|
D|------------------------------------------|
A|------------------------------------------|
E|------------------------------------------|

E|-12-12-12-10-8-7h8p7-7h8-7----------------|
B|------------------------------------------|
G|------------------------------------------|
D|------------------------------------------|
A|------------------------------------------|
E|------------------------------------------|

E|-7-7h8-7----------------------------------|
B|---------10-8-----------------------------|
G|--------------7h9-7h9-7--4h5-4------------|
D|------------------------------------------|
A|------------------------------------------|
E|------------------------------------------|

E|------------------------------------------|
B|------------------------------------------|
G|-0-0h2-0----------------------------------|
D|---------2-0------------------------------|
A|-------------0h2-0------------------------|
E|-------------------3----------------------|

[Primeira Parte]

   G
Você sempre fez os meus sonhos

Sempre soube dos meus segredos
              C    F  C
Já faz muito tempo
                         G
Eu nem me lembro quanto tempo faz

O meu coração não sabe contar os dias

E a minha cabeça já está tão vazia
        C          F  C
Mas a primeira vez
          G       
Ainda me lembro bem

[Pré-Refrão]

C            D              G
  Talvez eu seja no seu passado 
          C     
Mais uma página
G           C                  D
  Que foi, do seu diário arrancada

[Refrão]

 C              D
Sonho, choro e sinto
     G       D         C 
Que resta alguma esperança
G            C                  D
  Saudade, quero arrancar essa página
          G
Da minha vida

[Final] G
Composición de Eduardo Costa
13.380 vistas
    • ½ Tono
    • A
    • Bb
    • B
    • C
    • Db
    • D
    • Eb
    • E
    • F
    • F#
    • G
    • Ab
  • Agregar a la lista

    0 comentarios

    Ver todos los comentarios
    00:00 / 00:00
    Outros vídeos desta música
    Repetir Calidad Automático
    Outros vídeos desta música
    00:00 / 00:00
    Automático
    OK