Cifra Club

Separação

Eduardo Costa

Tablatura: Principal
reproducciones 264
Tono: F
[Intro] F  C  Bb  F  C  F  Bb  F

E|--------------------------------------------------------|
B|---------------8/10-6-6-6--------6-6-6-8-10-10--8-6-6h8-|
G|---------------------------5-5-5------------------------|
D|---------8--10------------------------------------------|
A|--8--10-------------------------------------------------|
E|--------------------------------------------------------|

E|--------------------------------------------------------|
B|--5-5-5-6-8-8-6-5-5/6---------5-6-5---------------------|
G|----------------------------7-------7-5h7-5-5-5---------|
D|--------------------------------------------------------|
A|--------------------------------------------------------|
E|--------------------------------------------------------|

E|-------------------------------1---1--------------------|
B|-------------------------------3---1--------------------|
G|--3\2-5-----3\2-0--------------3---2--------------------|
D|-------------------3h5-7-------3---3--------------------|
A|-------------------------------1---3--------------------|
E|-----------------------------------1--------------------|

  F                                     Am7
Qual terá sido o motivo da nossa separação
 Bb                    C
Se é que se cansou de mim
                F     C
Eu não pude perceber
F               Dm                Am7
Intimidade ferida é o que restou de nós
Bb               C               F     C/E
A minha felicidade se foi com você
Dm
Outro melhor do que eu
            Am7
Você não encontrará
              Bb          Gm                 C7
Também não encontrarei alguém assim como você

 F
Vem me dizer onde errei
           C
Que eu te peço perdão
          Bb          C                  F   C
Quero sentir suas mãos e o seu beijo de novo
     F                               C
Eu quero provar pra você a força do meu amor
          Bb         C          F      C
Amor que não aceitou uma outra mulher

[Solo] F  C Bb F  C  F  Bb  F

 F                                      Am7
Qual terá sido o motivo da nossa separação
Acordes para:

    0 comentarios

      mostrar más comentarios

      ¿Conseguiste tocar?

      15tocaron0aún no

      ¡Graba un vídeo tocando Separação y envianoslo!

      00:00 / 00:00
      outros vídeos desta música
      repetirqualidadeautomática
      Outro vídeos desta música
        00:00 / 00:00
        automática
        OK