Cifra Club

I Need Some Sleep

Eels

Cifrado: Principal (guitarra y guitarra eléctrica)
Selo Cifra Club: esta cifra foi revisada para atender aos critérios oficiais da nossa Equipe de Qualidade.
tono: C
[Intro]

   Am       Em         F7M      C7M
E|-8------8-7--------------8----------------|
B|-----10-------8-----10--------8------8----|
G|---9--------9---9------9---9-------9------|
D|-7------------------------------10--------|
A|----------7----------8--------------------|
E|------------------------------8-----------|

   Am       Em         F7M      C7M
E|-----8----7--------------8----7-----7-----|
B|10------------8-----10------------8-------|
G|---9---9----9---9------9---9----9---------|
D|-7----------------------------------------|
A|----------7----------8--------------------|
E|------------------------------8-----------|

Am          Em
I need some sleep
  F7M              C7M
It can't go on like this
Am               Em
I tried countin' sheep
   F7M                   G
But there's one I always miss

[Primeira Parte]

   Am       Em        F7M       C7M
E|-----8----7-----7---8----8-----------------|
B|10------------8-------10---10-8------8----|
G|---9---9----9----------------------9------|
D|--------------------------------10--------|
A|-0------------------8---------------------|
E|----------0-------------------8-----------|

   Am       Em        F7M      - G
E|-----8----7-----7---8----8----------------|
B|10------------8-------10---10--8------8---|
G|---9---9----9-----------------------7-----|
D|----------------------------------9-------|
A|-0------------------8----------10---------|
E|----------0-------------------------------|

Am       Em
Everyone says
   F7M              C7M
I'm gettin' down too low
Everyone says
F7M                  C7M
You just gotta let it go
F7M                  C7M
You just gotta let it go

F7M                  C7M
You just gotta let it go

( Am  Em  F7M  C7M )
( Am  Em  F7M  C7M )

Am          Em
I need some sleep
  F7M              C7M
It can't go on like this
Am               Em
I tried countin' sheep
   F7M                   G
But there's one I always miss

Am       Em
Everyone says
   F7M              C7M
I'm gettin' down too low
Am       Em
Everyone says
F7M                  C7M
You just gotta let it go
F7M                  C7M
You just gotta let it go

F7M                  C7M
You just gotta let it go

F7M                  C7M
You just gotta let it go
F7M                  C7M
You just gotta let it go
F7M                  C7M
You just gotta let it go
Otros videos de esta canción
    33.322 exhibiciones
      • ½ Tono
      • A
      • Bb
      • B
      • C
      • Db
      • D
      • Eb
      • E
      • F
      • F#
      • G
      • Ab
    • Agregar a la lista

    Afinación de cifrado

    Afinador online

      OK