Cifra Club

Si tu quisieras

Efecto Mariposa

Cifrado: Principal (guitarra y guitarra eléctrica)
tono: Am

E|----| acordes ------------
|                       |
|**cejilla en 1er traste|
E|-----------------------|
| C:    032010          |
| G:    320003          |
| Am:   002210          |
| F:    133211          |
| Em:   022000          |
| A#:   224442          |
| Fm:   133111          |
G|-----------------------|



[intro]:
C      G      Am
G F    G      C      G


F
  Me siento a tu vera,
    Em
y siento que vuela, lo siento de veras.
F
  Y ahora al tenerte de cerca
  G
me he dado cuenta que te he perdido,
F                       Em
  que ya no cuentas conmigo,
F
  que todo te sabe mal,
G
  que no te lo crees, que es más de lo mismo.


Am       G           F
  Hoy daría lo que fuera
G                   Am
  por tenerte a mi lado,
        A#            F         G
por seguirte siempre si tú quisieras.

 C       G           Am
Tengo razones ya de sobra
            G        F
para andarme con historias
               G               C      G
y es que te quiero y quiero estar contigo.
  C         G             Am
Siento que nada más me importa,
               G         F
que me importas más que nada.
      G                C           G
El camino que sigo empieza y acaba
    C   G   F
contigo.


          F              Em
Si en tus ojos    yo me miro
          F                      G
Si las palabras de tu boca   adivino ¿por qué no estar contigo?
F                      Em
  Siento sentirme tu amigo,
F
  quiero dejarlo estar,
     G
me duele pensar lo que pudo haber sido.


Am       G           F
  Hoy daría lo que fuera
G                   Am
  por tenerte a mi lado,
        A#            F         G
por seguirte siempre si tú quisieras.

 C       G           Am
Tengo razones ya de sobra
            G        F
para andarme con historias
               G               C      G
y es que te quiero y quiero estar contigo.
  C         G             Am
Siento que nada más me importa,
               G         F
que me importas más que nada.
      G                C               G
El camino que sigo empieza y acaba contigo.


  Am
Cuantas cosas en mi vida cambiaría,
                 G
cuanto mal que te ahorraría si pudiera amor.
          F
Loco de atar por ti,
          Fm
si tú quisieras,
          C       G   Am   G
si tú quisieras.


 C       G           Am
Tengo razones ya de sobra
            G        F
para andarme con historias
               G               C      G
y es que te quiero y quiero estar contigo.
  C         G             Am
Siento que nada más me importa,
               G         F
que me importas más que nada.
      G                C            G
El camino que sigo empieza y acaba
    C               G
contigo        (contigo)
E-||---------------|---------------|
B-||---------3-----|---------3-----|
G-||-----5---------|-----5---------|
D-||-4h5---5-------|-4h5---5-------|
A-||---------------|---------------|
E-||---------------|---------------|
    Am              G
contigo        (contigo)
E-||-------------3-|5--------------|
B-||---------3h5---|--5----3-------|
G-||-----5---------|----5-----5----|
D-||-4h5---5-------|---------------|
A-||---------------|---------------|
E-||---------------|---------------|
    F               G
B  tú quisieras   (B  tú quisieras)
E-||---------------|---------------|
B-||---------------|---------------|
G-||---------------|---------------|
D-||-5h7--7-7s5-5--|------5--------|
A-||---------------|-5h7----5s7s5--|
E-||---------------|---------------|
    C               G               C
B  tú quisieras   (B  tú quisieras)
E-||---------------|---------------|
B-||---------------|---------------|
G-||-------------5-|7--7s9s7--5-7s9|
D-||---------5-7---|---------------|
A-||--5-5h7--------|---------------|
E-||-8-8-----------|---------------|




###------------------------------###
### Tablatura de: Enrique Moraño ###
### Sevilla [España]    AGO-2007 ###
###------------------------------###
00:00 / 00:00
Otros videos de esta canción
Repetir
Otros videos de esta canción
Composición de Efecto Mariposa
24 vistas
    • ½ Tono
    • Am
    • Bbm
    • Bm
    • Cm
    • C#m
    • Dm
    • Ebm
    • Em
    • Fm
    • F#m
    • Gm
    • G#m
  • Agregar a la lista

    0 comentarios

    Ver todos los comentarios

    ¿Lograste tocar?

    0 Tocaron 0 Aún no

    ¡Graba un video tocando Si tu quisieras y envíanoslo!

    00:00 / 00:00
    OK