Cifra Club

Solo

Ekhymosis

Cifrado: Principal (guitarra y guitarra eléctrica)
tono: G#m
PARTE: G  O (2:27- 2:45 min)
E|------------------------------------------------|
B|------------------------------------------------|
G|-------------15-15h16-15------------------------|
D|----16h18-16-------------16-------16-16h18------|
A|-16-------------------------16-18----------16---|
E|------------------------------------------------|

E|-----------------------------------1821p18-----------------|
B|-------------------19-19/20-19--1921------2119----2119-----|
G|-18h20-18-------------------------------------2018----2018-|
D|----------21-20-21-----------------------------------------|
A|-----------------------------------------------------------|
E|-----------------------------------------------------------|

E|----------------------------------------------------------|
B|----------------------------------------------------------|
G|-----18------------------------------------------16/18-15-|
D|-2018--201816201816--1816----16---------------------------|
A|-------------------18----1816--1816-----------------------|
E|-----------------------------------1816141314h16----------|
00:00 / 00:00
Otros videos de esta canción
Repetir
Otros videos de esta canción
Composición de Fernando Andr / Jose David Lopera / José Fernando Uribe / Juan Esteban Aristizabal
430 exhibiciones
    • ½ Tono
    • Am
    • Bbm
    • Bm
    • Cm
    • C#m
    • Dm
    • Ebm
    • Em
    • Fm
    • F#m
    • Gm
    • G#m
  • Agregar a la lista
    00:00 / 00:00
    OK