Cifra Club

Ya nada es

Ekhymosis

Cifrado: Principal (guitarra y guitarra eléctrica)
Selo Cifra Club: esta cifra foi revisada para atender aos critérios oficiais da nossa Equipe de Qualidade.
tono: D
intro

E|------------------------------------------------------------------------------------------|
B|--2-3---3-2-3-2-3---3-2---7-7-5---2-3-3-2--2-2-2-3---3-2-3-2-3---3-2---7-7-5--0-2-3-3-2---|
G|------2-----------2-----2--------------------------2-----------2-----2--------------------|
D|------------------------------------------------------------------------------------------|
A|------------------------------------------------------------------------------------------|
E|------------------------------------------------------------------------------------------|


         D
Como explicar el corazon
            G           A
te cambia y no te das cuenta ya
          D
Si es desamor o que quizas
         G           A
nunca quisiste tanto de verdad
        D
Ya nada es como el ayer
         G         A
todo se acaba y no hay reves
          D
Me duele mas que tu no estes
          G            A
pero el destino ya lo quizo asi

 D                G
Mira que voy a morir
   A
si tu no regresas
  D                  G
Mira que vuelvo a vivir
    A
si tu estas conmigo

E|-----------------------------------------------|
B|--2-2-3---3-2-3-2-3---3-2---7-7-5--0-2-3-3-2---|
G|--------2-----------2-----2--------------------|
D|-----------------------------------------------|
A|-----------------------------------------------|
E|-----------------------------------------------|

             D
Vuelve hacia mi (Vuelve hacia mi)

Perdoname (perdoname)
            G          A
Quiero escuchar tu voz otra vez
         D
Decirme si (decirme si)

Te voy amar (te voy amar)
          G          A
Tanto que no podras corresponder

        D
Ya nada es como el ayer
         G         A
todo se acaba y no hay reves
          D
Me duele mas que tu no estes
          G            A
pero el destino ya lo quizo asi

D                G
Mira que voy a morir
   A
si tu no regresas
  D                  G
Mira que vuelvo a vivir
    A
si tu estas conmigo  [x4]


ENTRA EL PIANO Y LUEGO VUELVE DE NUEVO EL CORO PERO EN UN TONO MÁS ALTO.
Es decir, D->E , G->A , A->B

 E                A
Mira que voy a morir
   B
si tu no regresas
  E                  A
Mira que vuelvo a vivir
    B
si tu estas conmigo  [x4]


           uuuuuuu no .....                                                             B
E|---------------------------------------------------------------------------------------2--|
B|--4-5---5-4-5-4-5---5-4---9-9-7--2-4-5-5-4--4-4-4-5---5-4-5-4-5---5-4---9-9-7--2-4-5-5-4--|
G|------4-----------4-----4---------------------------4-----------4-----4----------------4--|
D|---------------------------------------------------------------------------------------4--|
A|---------------------------------------------------------------------------------------2--|
E|---------------------------------------------------------------------------------------2--|
Otros videos de esta canción
    66 exhibiciones
      • ½ Tono
      • A
      • Bb
      • B
      • C
      • Db
      • D
      • Eb
      • E
      • F
      • F#
      • G
      • Ab
    • Agregar a la lista

    Afinación de cifrado

    Afinador online

      OK