Cifra Club

Aprenda

¡Eres Tonto!

El Canto del Loco

Tablatura: Principal (guitarra)
tono: D
Porfavor,para que os suene perfecto lo teneis que tocar en quintas 
cerca de los ultimos trastes.
Fm                                    Cm
Esta historia que te cuento es como un grito
Fm                                        Cm
Una voz desesperada que grita pidiendo auxilio
Bbm                                       Cm
Auxilio por no ver nada que me llene en el camino
Bbm                               Cm   Fm
Auxilio por ver que hay mucha falta de cariño

Me paro y me pregunto por qué no vives
Rodeado de mas verdad y buscando desequilibrio
Que te llene de valor y que te quite del suicidio
No tener que depender para sentirte mas querido

Bbm                          Cm
Usando menos el coco y un poquito mas la piel
Bbm                           Cm
Ya que somos lo que somos y si no lo quieres ver

     Fm
Eres tonto!
     Bbm                         Cm
Si no te gustas es que no estás vivo
Eres tonto!
Pero eso es algo que nació contigo


Y mañana al despertar, saltar de la cama (*)
e|-----------------------------------------
B|-----------------------------------------
G|----------------------6--------------9---
D|--------------------7---7----------9---9-
A|-----------------------------------------
E|-----------------------------------------
Luchar tu mañana, mirar a la cara
e|--------------------------------
B|--------------------------------
G|----------11-------------6------
D|-------11----11--------6---6----
A|--------------------------------
E|--------------------------------
Que no eres nada
e|-----------
B|-----------
G|-----7-----
D|---7-- 7---
A|-----------
E|-----------

     C#m
Eres tonto!
      D#m                 Fm
Salir a la calle sin la tonteria
      Cm                  C#m
Sacando de dentro entera tu vida
Cm
Entera tu vida

Fm                                Cm
Parece que esta de moda ir de tontito
Fm                                              Cm
Aparentar ser la persona que siempre tu habias querido
Sib                                          Cm
¿Por qué no te quieres aunque sea solo un poquito?
Sib                                    Cm  Fm
¿Por qué no eres tu mismo y no algo parecido?

Bbm                          Cm
Usando menos el coco y un poquito mas la piel
Bbm                          Cm
Ya que somos lo que somos y si no lo quieres ver


      Fm
Eres tonto!
    Bbm                         Cm
Si no te gustas es que no estás vivo
Eres tonto!
Pero eso es algo que nació contigo

Y mañana al despertar, saltar de la cama (*)
e|-----------------------------------------
B|-----------------------------------------
G|----------------------6--------------9---
D|--------------------7---7----------9---9-
A|-----------------------------------------
E|-----------------------------------------
Luchar tu mañana, mirar a la cara
e|--------------------------------
B|--------------------------------
G|----------11-------------6------
D|-------11----11--------6---6----
A|--------------------------------
E|--------------------------------
Que no eres nada
e|-----------
B|-----------
G|-----7-----
D|---7-- 7---
A|-----------
E|-----------

       C#m
Eres tonto!
       D#m                 Fm
Salir a la calle sin la tonteria
       Cm                  C#m
Sacando de dentro entera tu vida
Cm
Entera tu vida

Ehh!
 
SOLO (**):
 
F#m                     A
E|--------------------------------------------------
B|--------------------------------------------------
G|--------------------------------------------------
D|-7-6-7-7/9-7-6/7/6--------7-6-7-7/9-7-6/7/6-------
A|-------------------7------------------------9-----
E|--------------------------------------------------

   D                   Bm   Do#
E|-------------------------------------------------
B|-------------------------------------------------
G|-------------------------------------------------
D|-7-6-7-7/9-7-6/7/6----6-7-9-9/11-11-9/11-8-7/11--
A|-------------------9-----------------------------
E|-------------------------------------------------

  F#m                     A
E|------------------------------------------------
B|------------------------------------------------
G|------------------------------------------------
D|-6/7-6---6/7-7-6---------6/7-6---6/7-7-6--------
A|-------7---------7-4-----------7---------7-5----
E|------------------------------------------------

     D                   Bm   Do#
E|--------------------------------------------
B|--------------------------------------------
G|-----------------------------9-11-13-14-----
D|--6/7-6---6/7-6-----6-7-9-11----------------
A|--------7-------7-9-------------------------
E|--------------------------------------------


       C#m
Eres tonto!
         D#m                 Fm
Salir a la calle sin la tonteria
         Cm                  C#m
Sacando de dentro entera tu vida

         C#m
Eres tonto!
          D#m                 Fm
Salir a la calle sin la tonteria
            Cm                  C#m
Sacando de dentro entera tu vida
Cm
Entera tu vida
E|--------------------------------
B|--------------------------------
G|--------------------------------
D|-8---10-8-7-----10---12-10-8---5-
A|---------------7-----------------
E|--------------------------------

Fm
Eres tontooo ¡

(*) y (**) -> Haber no me acurdo muy bien pero si no os suena bien bajais 
un traste los punteos y el solo; el ultimo solo creo que esta en su sitio
Composição de Dani Martín / David Otero
Colaboración y revision:
  • Alejandro
1.005 reproducciones
    • ½ Tono
    • A
    • Bb
    • B
    • C
    • Db
    • D
    • Eb
    • E
    • F
    • F#
    • G
    • Ab
  • Adicionar à lista

    0 comentarios

    Ver todos os comentários

    ¿Conseguiste tocar?

    0 Tocaram 0 Ainda não

    Grave um vídeo tocando ¡Eres Tonto! e nos envie!

    00:00 / 00:00
    outros vídeos desta música
    repetir qualidade Automático
    Outros vídeos desta música
    00:00 / 00:00
    Automático
    OK