Cifra Club

Aprenda

Volver a Disfrutar

El Canto del Loco

Tablatura: Principal (guitarra)
tono: Ab
weno pss sta es la knción completa, espero les guste
y les sirva
un saludo a todos

intro
e|------------------------------------|
b|------------------------------------| sto se repite
g|------------------------------------| 4 veces en el
d|------------------------------------| intro
a|-------------------------6--6-------|
E|--4--4--4-4--4--4--6--8--------8--6-|
          pm

verso
    Dé...............jano.........s en
e|------------------------------------|
b|------------------------------------|
g|------------------------------------|
d|------------------------------------|
a|-------------------------6--6-------|
E|--4--4--4-4--4--4--6--8--------8--6-|
          pm
    pa...............z
e|--------------------------------------|
b|--------------------------------------|
g|--------------------------------------|
d|--------------------------8--8--------|
a|--6--6--6-6--6--6--8--10--------10--8-|
E|--------------------------------------|
          pm

         Db            Eb          Ab
No nos cuentes otro cuento que no va.
    Y...............si e..........s tu
e|------------------------------------|
b|------------------------------------|
g|------------------------------------|
d|------------------------------------|
a|-------------------------6--6-------|
E|--4--4--4-4--4--4--6--8--------8--6-|
          pm
    pla..............n
e|--------------------------------------|
b|--------------------------------------|
g|--------------------------------------|
d|--------------------------8--8--------|
a|--6--6--6-6--6--6--8--10--------10--8-|
E|--------------------------------------|
       Db                     Eb       Ab
Tú además no has contado con nosotros
       Eb                Fm
Y no vais a marearnos más.


pre-coro
        Eb       Db         Ab-Eb
No veo la necesidad de discutir,
Fm            Eb Db             Eb
   Sólo hay que, dejarlo claro todo y...


coro
                Ab
Volver a disfrutar
                Eb
Con algo que decir
                 Db
Con algo que pensar
                  Dbm                    Ab
Dejar las cosas claras para no volver atrás,
                  Eb               Db
Cambiar la dirección de un solo motor
                  Dbm                      Ab
Dejar las cosas claras para no acabar tan mal

puente
Ab - Eb - Db - Dbm - Ab

verso 2
    no...............quiero...........
e|------------------------------------|
b|------------------------------------|
g|------------------------------------|
d|------------------------------------|
a|-------------------------6--6-------|
E|--4--4--4-4--4--4--6--8--------8--6-|
          pm
    má...............s
e|--------------------------------------|
b|--------------------------------------|
g|--------------------------------------|
d|--------------------------8--8--------|
a|--6--6--6-6--6--6--8--10--------10--8-|
E|--------------------------------------|
          pm

         Db            Eb          Ab
No me enseñes tu careto de anormal
    Dé.............. jalo e..........s-
e|------------------------------------|
b|------------------------------------|
g|------------------------------------|
d|------------------------------------|
a|-------------------------6--6-------|
E|--4--4--4-4--4--4--6--8--------8--6-|
          pm
    ta..............r
e|--------------------------------------|
b|--------------------------------------|
g|--------------------------------------|
d|--------------------------8--8--------|
a|--6--6--6-6--6--6--8--10--------10--8-|
E|--------------------------------------|
       Db            Eb         Ab
Formas parte de ese género que huele
       Eb           Fm
a mentira y falsedad

pre-coro
        Eb       Db         Ab-Eb
No veo la necesidad de discutir,
Fm            Eb Db             Eb
   Sólo hay que, dejarlo claro todo y...

coro
                Ab
Volver a disfrutar
                Eb
Con algo que decir
                 Db
Con algo que pensar
                  Dbm                    Ab
Dejar las cosas claras para no volver atrás,
                  Eb               Db
Cambiar la dirección de un solo motor
                  Dbm                      Ab
Dejar las cosas claras para no acabar tan mal

puente
G#-D#-C#-C#m (ahora 2 veces)

outro
Fm         Fm   Db         Db    Eb Eb-Ab-Eb
  Por disfrutar,  por disfruta........r,
Fm         Fm   D#         D#  Do#-Re#
  Por disfrutar,  por disfruta....... r,

por volver a disfrutar.

coro 2
                Eb
Con algo que decir
                 Db
Con algo que pensar
                  Dbm                    Ab
Dejar las cosas claras para no volver atrás,
                  Eb               Db
Cambiar la dirección de un solo motor
                  Dbm                      Ab
Dejar las cosas claras para no acabar tan mal

coro
                Ab
Volver a disfrutar
                Eb
Con algo que decir
                 Db
Con algo que pensar
                  Dbm                    Ab
Dejar las cosas claras para no volver atrás,
                  Eb               Db
Cambiar la dirección de un solo motor
                  Dbm
Dejar las cosas claras para no acabar tan
    Ab
   mal
e|------------------------------------|
b|------------------------------------|
g|------------------------------------|
d|------------------------------------|
a|-------------------------6--6-------|
E|--4--4--4-4--4--4--6--8--------8--6-|

Sta rola se la dedico a todos mis cuates y a mi niña
Composição de Dani Martín / El Canto del Loco
Colaboración y revision:
  • Jorge Junior
283 reproducciones
    • ½ Tono
    • A
    • Bb
    • B
    • C
    • Db
    • D
    • Eb
    • E
    • F
    • F#
    • G
    • Ab
  • Adicionar à lista

    0 comentarios

    Ver todos os comentários

    ¿Conseguiste tocar?

    0 Tocaram 0 Ainda não

    Grave um vídeo tocando Volver a Disfrutar e nos envie!

    00:00 / 00:00
    outros vídeos desta música
    repetir qualidade Automático
    Outros vídeos desta música
    00:00 / 00:00
    Automático
    OK