Cifra Club

Regresa Ya

El Gran Combo de Puerto Rico

Cifrado: Principal (guitarra y guitarra eléctrica)
tono: Em
Intro:
E|---------------------------------|
B|----6-4.---4---------------------|
G|-5.----------5-3-5-3---3.-3-5-3--|
D|---------------------6-----------|
A|---------------------------------|
E|---------------------------------|

E|----------------------------|
B|-----6-6-5.-------4---4-3.--|
G|-5-5----------5-5---5-------|
D|----------------------------|
A|----------------------------|
E|----------------------------|

E|---------------------------------|
B|----6-4.---4---------------------|
G|-5.----------5-3-5-3---3.-3-5-3--|
D|---------------------6-----------|
A|---------------------------------|
E|---------------------------------|

E|---------------------------------------------------------------|
B|-----6-6-5.-------4---4-3.--------6-6-5-5------5-6.--6---4.-3.-|
G|-5-5----------5-5---5---------6-6------------5---------5-------|
D|-------------------------------------------3-------------------|
A|---------------------------------------------------------------|
E|---------------------------------------------------------------|


Em                   Am
Vas de fracaso en fracaso
         B         Em
buscando yo no se qué.
                  Am
Quizás buscando emociones
        B             Em  E
que yo siempre te brindé.
                    Am
Si tú me quieres a mi
     D               G
que sabes cuánto te quiero
         C           B                            Em   E
que por ti yo soy capaz de conquistar el mundo entero.
                      Am
Tal vez tu orgullo barato
       D         G
no te deja regresar
   C            B                         Em  E
olvídate de rencores, que nunca te ha de pesar.
                    Am
Regresa a mi, vida mia,
 D             G
nada te he de reprochar
    C            B
te devolveré tu reino
                     Em
y te adoraré en mi altar.
 Am             Em
Te devolveré tu reino
       B              Em
y te adoraré en mi altar.

Em - G - C - Em

Em                Am
Es tu reino mi alma, es que eres todo mi anhelo;
 D             Em
ven y dame la calma, mi pasion, mi vida, mi ilusion.
Em                Am
Es tu reino mi alma,
que ya no puedo más, cansado estoy ya, de tanto esperar;
 D               Em
ven y dame la calma, lo que te quiero es demostrar.
Em                Am
Es tu reino mi alma, que un amor como el mio no vas a encontrar;
 D               Em
ven y dame la calma, ¿en donde estas corazon?
Em                Am
Es tu reino mi alma, apiádate de mi alma;
 D               Em
ven y dame la calma, que esta angustia poco a poco me va ha matar.
Em                Am
Es tu reino mi alma, dime si esto es un castigo;
 D               Em
ven y dame la calma, no me castiges más, te lo pido.
Em                Am
Es tu reino mi alma, vida, te daré lo que tú quieras;
 D               Em
ven y dame la calma, pide, todo será a tu manera.
Em                Am
Es tu reino mi alma, toma mi amor, mi corazón;
 D               Em
ven y dame la calma, mi amada, sigo esperando por ti.

Em - Am - D - Em (x2)
Em - C - G - Em

 Em                   C
Cómo ansío tu regreso ya,
      B                                Em
si supieras que desvelo, llevo tantas noches, no me hagas esperar más.
Em
 Em                   C
Cómo ansío tu regreso ya,
          B
unos con mucho, otros con poco, ay bendito y yo sin na'.
 Em                   C
Cómo ansío tu regreso ya,
        B
ven regresa reina mia que vacío esta tu altar.
 Em                   C
Cómo ansío tu regreso ya,
  B                             E 
vuelve que tú sabes que no hay otro, otro que te quiera más.

Em - C - B - Em - Am - C - Em



E|--------|
                º-| ¤    ¤ |-º
                º-|  LuïS  |-º
                º-| ¤    ¤ |-º
                          /
                    |    |
        ·===========================·
        |        Lima - Perú        |
        ·===========================·
00:00 / 00:00
Otros videos de esta canción
Repetir
Otros videos de esta canción
Compositor no encontrado.
10 vistas
    • ½ Tono
    • Am
    • Bbm
    • Bm
    • Cm
    • C#m
    • Dm
    • Ebm
    • Em
    • Fm
    • F#m
    • Gm
    • G#m
  • Agregar a la lista

    0 comentarios

    Ver todos los comentarios

    ¿Lograste tocar?

    0 Tocaron 0 Aún no

    ¡Graba un video tocando Regresa Ya y envíanoslo!

    00:00 / 00:00
    OK