Cifra Club

Círculo de amor

El Gran Silencio

Chords: Principal (acoustic and electric guitars)
tone: A
    G        E        A        ?
E|-3-3-3-0--0-0-0-0--0-0-0-0--2-2-2-0-|
B|-3-3-3-0--0-0-0-0--1-1-1-0--1-1-1-0-|
G|-0-0-0-0--0-0-0-0--2-2-2-0--2-2-2-0-|
D|-0-0-0-0--2-2-2-0--2-2-2-0--0-0-0-0-|
A|-2-2-2-0--2-2-2-0--0-0-0-0--0-0-0-0-|
E|-3-3-3-0--0-0-0-0--0-0-0-0--0-0-0-0-|

lo cual lleva un ritmo rondallero

y esto es lo q va con acordeon al principio

E|--------------------------------------|
B|-7-5---3-3-3-5-5-3-1---1-1-1-3-3-1-0--|

E|-0-1-3-1-0-1-1-0----------------------|
B|-----------------3-3-1-3-1-3-1-0------|

E|-3-3-3-1-0-0-0-1-3-1-3-1-0-----------|
B|-------------------------------------|

y el solo con acordeon y trompetas
q va casi al ultimo va con bajo las notas
son estas:

A|-5--3--2---2-3-5-7-8-10-8-7---2-3-5-7-8-10-8-7---|

A|-5-3-2--7-8-10--8-7-8----------------------------|

A|-5-5-3-5-3-2----2-3-5-7-8-10-8-7-2-3-5-7-8-10-8-7|
|---------------------------|
|A--5-3-2--7-8-10--8-7-8--| se repite 4 veces mas

mientras haces esto va un requinto mas con guitarra
pero no lo pude sacar, por el hecho q apenas tengo
un año con la guitarra.
00:00 / 00:00
Other videos of this song
Repeat
Other videos of this song
165 views
    • ½ Tone
    • A
    • Bb
    • B
    • C
    • Db
    • D
    • Eb
    • E
    • F
    • F#
    • G
    • Ab
  • Add to list

Afinação da cifra

Afinador online

    00:00 / 00:00
    OK