Cifra Club

Creaturas de Luz

El Gran Silencio

Chords: Principal (acoustic and electric guitars)
tone: Bm
Intro

E|----------------------------------------------7-7/8-7------------| x2
B|---7-7--7-8-7---7-7--7-7---------------7-8-10---------10-8-------|
G|--------------9----------9-7-9-9---7-9---------------------9-----|
D|-9---------------------------------------------------------------|
A|-----------------------------------------------------------------|

E|-8-8-8-7-7-7----------7-7-7--------------------------------------|
B|-------------10-10-10-------10-10-10-8-8-8--10-10-10-8-8-8-7-7-7-|
G|-----------------------------------------------------------------|
D|-----------------------------------------------------------------|
A|-----------------------------------------------------------------|

E|-----------------------7-7/8-7-----------------------------------|
B|-7p8-7----------7-8-10---------10-8------------------------------|
G|-------7-9--7-9---------------------9--7-9-9---------------------|
D|-----------------------------------------------------------------|
A|-----------------------------------------------------------------|


Despues del Intro

 E Bm  x8


E        Bm            E          Bm
  Ahi estas de nuevo con el alma entre el fuego

   E            Bm       E     Bm
y con un llanto... en silencio

E       Bm           E           Bm
  Ahi estas incado frente a un altar resando

   E      Bm             E    Bm
y con dos... velasen el suelo

E          Bm            E        Bm
tu alma busco por siempre ser infinita, eterna,

E        Bm         E    Bm
pero hoy... esta enferma

E              Bm           E      Bm
tu que siempre fuiste triste y solitario

 E          Bm        E    Bm
ahora rezas...  un rosario



    --Puente--

  G F# Em D C Bm A  ...siempre lo rezas a diario




E       Bm             E           Bm
  Ahi estas de nuevo frente a esa cruz

     E        Bm             E       Bm
esperando que bajen las creaturas de luz

E       Bm             E           Bm
  Ahi estas de nuevo frente a esa cruz

     E        Bm             E       Bm
esperando que bajen las creaturas de luz


E          Bm            E        Bm
tu alma busco por siempre ser infinita, eterna,

E        Bm         E    Bm
pero hoy... esta enferma

E              Bm           E      Bm
tu que siempre fuiste triste y solitario

 E          Bm        E    Bm
ahora rezas...  un rosario


    --Puente--

  G F# Em D C Bm A


Durante el solo de voilin
se repiten estos acordes 8 veces

     Bm E  x8

y luego el Intro

Y ahi estas de nuevo frente a esa cruz...



Y ESO ES TOC , COMO BEM PD , DUDAS, COMENTARIOS, SUGED NCIAS,
DC AMAC IONES, CORDCC IONES, PETICIONES, ETC, DIRIGANSE AL
CORD O. CHIC !!
00:00 / 00:00
Other videos of this song
Repeat
Other videos of this song
Composed by Cano Hernández
8 views
    • ½ Tone
    • Am
    • Bbm
    • Bm
    • Cm
    • C#m
    • Dm
    • Ebm
    • Em
    • Fm
    • F#m
    • Gm
    • G#m
  • Add to list
    00:00 / 00:00
    OK