Cifra Club

Duerme Soñando

El Gran Silencio

Chords: Principal (acoustic and electric guitars)
tone: G
Intro (Requinto):

E|-5--3--2--0---------------5--5---5---5---3---2---0-------:
B|-7--5--3--1--3-----3---5--7--7---7---7---5---3---1----3--:
G|-------------4-----4---7------------------------------4--:
D|---------------------------------------------------------:
A|---------------------------------------------------------:
E|---------------------------------------------------------:
 Duer-me so-ñan-do con tus -o-jos tan ple-nos des-pier-tos

E|--------5-5---5---5---3---2---0----------3--2--0---------0----0--2--
B|-3---5--7-7---7---7---5---3---1----3-----5--3--1-----1------1----3--
G|-4---7-----------------------------4-----------0-----------------2--
D|-----------------------------------------------2-----------------0--
A|-----------------------------------------------3--------------------
E|--------------------------------------------------------------------
  con-tu-co-ra-zón lle-no y ra-dian-te   Aluci-nan-te  tan lleno de amor

Verso:
    D
La vida, la vida, la vida, qué es la vida
                   C
en tratar de entenderla se nos va la propia vida
                  D
tan simple, tan fuerte, tan llanamente suerte
            C
lo que acontece en preparación de la muerte.
 D
Pero es absurdo ocuparte de este estudio
     C
cada año, segundo a segundo
            D
no es tan profundo dormir soñando
           C
es la respuesta, tal vez es errónea, tal vez es correcta
 D
sueña a la par del presente y no del futuro
 C
porque de esto nunca estás tan seguro
  D
acaba tus enojos, así sí ya eres libre
  C
afuera tus despojos
  D
llena tu maleta de responsabilidad
 C
deja para mañana tu personalidad
     D
mas si tú sientes una contradicción 
     C
que el dormir te despierta y el despertar te duerme
      D
tal vez si lo dices no eres tan inteligente
     C
la gente sólo observa la ropa y los hechos
     D
mas nunca siente lo que hay dentro de sus pechos
     C
no existe entre ellos una real conexión
        D
pues creen tener siempre la razón
     C
la razón justa y procesadora
 D
de lo correcto que se hace cada hora
 C
pero en este sueño tú estás sumergido
 D
mas no te sientas nunca afligido
 C
porque con este sueño tú estás protegido
   D
y aunque te sientas un poco distante
   C
tu alma lo dice a cada instante

Coro:
  D       G
Duerme soñando
        D          C         G
con tus ojos tan plenos despiertos 
        D        C         G
con tu corazón lleno y radiante
      C                    D
alucinante, tan lleno de amor,
           C              D
lleno de amor, lleno de amor, 
           C     D
lleno de amor, hey!

Verso:
 D
La vida, la vida, la vida, qué es la vida
     C
en tratar de entenderla se nos va la propia vida
    D
La vida, la vida, la vida, qué es la vida
    C
en tratar de entenderla se nos va la propia vida
   D
No estoy tan convencido de vivir en esta vida
   C
No estoy tan convencido de vivir en esta vida
   D
No estoy tan convencido de vivir en esta vida
   C
No estoy tan convencido de vivir...

Coro:
  D       G
Duerme soñando
        D          C         G
con tus ojos tan plenos despiertos 
        D        C         G
con tu corazón lleno y radiante
      C                    D
alucinante, tan lleno de amor,
           C              D
lleno de amor, lleno de amor, 
           C     D
lleno de amor, hey!             x2
           C  D D E D D E D
lleno de amor............hey!
00:00 / 00:00
Other videos of this song
Repeat
Other videos of this song
231 views
    • ½ Tone
    • A
    • Bb
    • B
    • C
    • Db
    • D
    • Eb
    • E
    • F
    • F#
    • G
    • Ab
  • Add to list

Afinação da cifra

Afinador online

    00:00 / 00:00
    OK