Cifra Club

No sabemos amar

El Gran Silencio

Cifrado: Principal (guitarra y guitarra eléctrica)
tono: D
E|-------2---------2-------------2---------2-------------|
B|-----3---------3-----3---3---3---------3---------------|
G|---4-------0-4---------0---4-------0-4-----------------|
D|---------4---------4-------------4---------4-----------|

  Riff 1
  Parado en el concreto

  de la ciudad, veloces carros miro pasar

  corazones prisioneros...
                  F#m G  Riff 2
  no tengo a quien amar.

   Riff 2:

E|--2-3-2---2-3-2--------------|
B|--3-3-3---3-3-3--------------|
G|--2-2-2---2-2-2--------------|

  Riff 1
  El sol es muy caliente
  y a la vez hay humedad
  Los relojes son feroces
  y no existe marcha atras
  corazones prisioneros
                 F#m G  Riff 2
  no tengo a quien amar
     Em         A       Riff 2
  no tengo a quien amar


   Em            A
  El dinero nos ahoga
        D
  y no nos deja de apretar
   Em            A
  el dinero nos ahoga
        D          Em A D
  y no nos quiere soltar

  Cumbia.

  Riff 1  ( solo de acordeon)

  Requinto:

E|---------------------------------------------5-7-7---|
B|---5-7-5-7-5-7-5-3-0-X2--5-7-5-7-5-7-5-7-7-7---------|
G|-----------------------------------------------------|
D|-----------------------------------------------------|

E|--7X8-----10X8--10<12X6-12<14-14-12<14<12-10-7-7-|
B|-------------------------------------------------|
G|-------------------------------------------------|
D|-------------------------------------------------|
    (8 VECES)

  Esta es la parte mas dificil pero con algo de practica sale ya que
  no es nada del otro mundo.

E|-7-7-10<7-------------------------------------|
B|----------10-7-10<7---------------------------|
G|--------------------9-7-9<7-------7-7-9---7---|
D|----------------------------9-7-9-------9-----|


  El resto de la cancion es con los mismos Riffs y tonos

  La vida es preocupaciones,
  nuestra carne es material
  nuestros sueños son visiones
  de un amor mas comercial
  corazones prisioneros

  No tengo aquien amar.

  Riff final:

E|----7---9----10-----|
B|--------------------|
G|--7---9---11--------|
00:00 / 00:00
Otros videos de esta canción
Repetir
Otros videos de esta canción
Composición de Tony
44 exhibiciones
    • ½ Tono
    • A
    • Bb
    • B
    • C
    • Db
    • D
    • Eb
    • E
    • F
    • F#
    • G
    • Ab
  • Agregar a la lista
    00:00 / 00:00
    OK