Cifra Club

The wings

El Gran Silencio

Chords: Principal (acoustic and electric guitars)
tone: C#m
E|-------------------------------------------|
B|-------------------------------------------|
G|------6-5-9-9-9-9-9---7-7-6----------------|
D|--7-7-6-5-9-9-9-9-9---7-7-6--9--7-7-7-7-7--|
A|--7-7-4-7-7-7-7-7-7---5-5-4--9--7-7-7-7-7--|
E|--5-5------------------------7--5-5-5-5-5--|

E|--------------------------------------------|
B|--------------------------------------------|
G|--14-14--13--9-9-9-9-9---7-7-6--------------|
D|--14-14--13--9-9-9-9-9---7-7-6--9-7-7-7-5-7-|
A|--12-12--11--7-7-7-7-7---5-5-4--9-7-7-7-7-7---|
E|--------------------------------7-5-5-5-5-5-------|


repite las dos secciones individualmente dos veces y luego sigue con la otra.

solo

E|-------------------------------------------|
B|-------------------------------------------|
G|--------6-7-9-9-9-9-9--7-7-6---------------|
D|---7-7------------------------9-7-7-7-7-7--|
A|-------------------------------------------|
E|-------------------------------------------|

E|--------------------------------------------|
B|--------------------------------------------|
G|--12-12-11-9--------------------------------|
D|--------------12-12-12-12-12----10-10-9-----|
A|-----------------------------------------12-|
E|--------------------------------------------|

E|--------------------------------------------|
B|--------------------------------------------|
G|--------------------------------------------|
D|--------------------------------------------|
A|----11-11-11-11-11--------------------------|
E|--------------------------------------------|
00:00 / 00:00
Other videos of this song
Repeat
Other videos of this song
2 views
    • ½ Tone
    • Am
    • Bbm
    • Bm
    • Cm
    • C#m
    • Dm
    • Ebm
    • Em
    • Fm
    • F#m
    • Gm
    • G#m
  • Add to list

Afinação da cifra

Afinador online

    00:00 / 00:00
    OK