Cifra Club

Tonta Canción de Amor #13

El Gran Silencio

Chords: Principal (acoustic and electric guitars)
tone: G
E|------------------------------------------------5--|
B|-(8-7---8-7-5-3-1)-x2| --1-3-1-0-1---0-1-3-1-0-1-----
G|-------------------------------------------------6-|




Sm   Cmaj7

Sueño que brinco el río

G     Cmaj7

Sueño que te sonrío

Am               G

y al despertar, tu estas dormida

Am            G
y tu quietud da calma a mi vida,

Cmaj7       Sm
por favor, no tapes más el espejo


que estoy soñando




(Requinto 1)





en esta estrofa es igual que la otra


Sueño que somos felices,

Sueño que me sonríes

y al despertar, estas a mi lado

y yo recuerdo cuanto te he amado

por favor, no tapes más el espejo

que estoy soñando



Requinto 2



E|-(8-7---8-7-5-3-2)x2---2-3-2-2----2-3-2-2-0---------|
B|----------------------------------------------------|

E|-2-3-2-2----2-8-7-5-3-2------------------------|
B|---------------------------------------(2-3-2-0)x4|
G|---------------------------4-2----2------------|
D|-------------------------------2-4-------------|

E|-(8-7---8-7-5-3-2)x2---2-3-2-2----2-3-2-2-0---------|
B|----------------------------------------------------|

E|-(2-3-2-2-0)| va desapareciendo cuando se esta tocando
B|------------|
                A  siguiente estrofa




G      Cmaj7
Sueño que voy volando,

G      Cmaj7
Sueño del cielo abajo

Am                G
y estas conmigo, aqui a mi lado

Am                G
tus dulces labios me estan besando





G      Cmaj7

Sueño que brinco el río

G      Cmaj7

Sueño que te sonrío

Am               G

y al despertar, tu estas dormida

Am            G
y tu quietud da calma a mi vida,

Cmaj7       G               Am
por favor, no tapes más el espejo...


 Sm          G
que estoy soñando.



Hagan silencio.




 Cmaj7
E|-0-|
B|-0-|
G|-0-|
D|-2-|
A|-3-|
E|-0-|
00:00 / 00:00
Other videos of this song
Repeat
Other videos of this song
Composed by Tony Hernandez
7 views
    • ½ Tone
    • A
    • Bb
    • B
    • C
    • Db
    • D
    • Eb
    • E
    • F
    • F#
    • G
    • Ab
  • Add to list
    00:00 / 00:00
    OK