Cifra Club

Tonta canción de amor #4

El Gran Silencio

Cifrado: Principal (guitarra y guitarra eléctrica)
Selo Cifra Club: esta cifra foi revisada para atender aos critérios oficiais da nossa Equipe de Qualidade.
tono: Em







esta es la introduccion en guitarra:
E|--------------------------------------------|
B|----------------------------------7---8-----10--|
G|-------------------5----7-----9----------------|
D|-----------5----7-----------------------------|
A|---5-----7-----------------------------------|
E|--------------------------------------------|

E|----------------------------------------|
B|---1010--10--10-/-8-8--8----7---8---7-------|
G|---------------------------------------|
D|-----------------------------------------|
A|----------------------------------------|
E|---------------------------------------|

E|-----------------------------------------|
B|-------------------------------------------|
G|----9---7---------------7--9------7^8-----------|
D|------------9---7----8--------------------|
A|------------------------------------------|
E|-------------------------------------------|

E|--10-------------------------------------|
B|------10---8-8----7---8---7--7----8---7---|
G|------------------------------------------|
D|-----------------------------------------|
A|-----------------------------------------|
E|-----------------------------------------|

E|------------------------------------------|
B|-----------------------------------7---8---7|
G|---9---7------------------7----9-----------|
D|-----------9----7----9-----------------------|
A|------------------------------------------|
E|-------------------------------------------|

E|--------------------------------------------|
B|---78--78---78---78---78---78----7---8---7|
G|--------------------------------------------|
D|--------------------------------------------|
A|-------------------------------------------|
E|--------------------------------------------|

E|---------------------------------------------|
B|--------------------------------7---8----10-|
G|--9---7-----------------7----9---------------|
D|----------9----7---9-------------------------|
A|----------------------------------------------|
E|-------------------------------------------------|

E|--10---------10------------------------------|
B|--------8-8--------7--8-7--------------------|
G|-----------------------------9----7------------|
D|--------------------------------------9---7---9-|
A|--------------------------------------------|
E|----------------------------------------------|

E|---------------------------------------------|
B|-----------7----8^10---10-10----8-8---7-8-7|
G|---7---9---------------------------------------|
D|----------------------------------------------|
A|-----------------------------------------------|
E|------------------------------------------------|

E|----------------------------------------------|
B|---------------------------------------------|
G|----9---7--------------------------------------|
D|--------------9------7-----------------------|
A|------------------------------------------------|
E|----------------------------------------------|

LLEVAME AL LUGAR C NDE SUSPIRAS EN A  NOCHE........






esta es la tablatura pero tiene de mi cosecha
hay cada uno de uds le ponen..... de su cosecha
por que yo la toco asi y esta bien nadamas que yo toco tiempos
que no van pero ditodos modos uds no saben como la toco yo
asi que esta bien la tab y echenle ganas
y un saludo a la colinia tablas del pozo
en la merita sierra de garralupe aca en ecatepunck
en el edo de mexico el edo de la carpinteria y los artesanos
y que viva el rock n' roll
auuuuuuuuuuu¡¡¡
Otros videos de esta canción
    46 exhibiciones
      • ½ Tono
      • Am
      • Bbm
      • Bm
      • Cm
      • C#m
      • Dm
      • Ebm
      • Em
      • Fm
      • F#m
      • Gm
      • G#m
    • Agregar a la lista

    Afinación de cifrado

    Afinador online

      OK