Cifra Club

Tonta canción de amor

El Gran Silencio

Chords: Principal (acoustic and electric guitars)
tone: Em
Intro:

E|------------------------------------3----------|
B|-----------0h1--------------------3---3--------|
G|------0---------0---------------0---------0----|
D|----2---2---------2----------2--------------2--|
A|--3-----------------(3)---3--------------------|
E|-----------------------------------------------|

E|-----------------------------------------------|
B|----------0h1--------------------3--1--0-------|
G|------0-------0------------0-------------0-----|
D|----2---2-------2------2-----2-----------------|
A|--3------------------3-------------------------|
E|-----------------------------------------------|

Se repite dos veces

  ...Engaña a mi corazon...


E|--------------------------------------------------------------------------------|
B|--------------------------------------------------------------------------------|
G|--------------------------------------------------------------------------------|
D|----------1-2-4-4-4-2-1---------------1-2----6/7-6-6-6-5-5-5-4-2----------------|
A|--3-3-3-5---------------5----3-3-3-5--------------------------------------------|
E|--------------------------------------------------------------------------------|
00:00 / 00:00
Other videos of this song
Repeat
Other videos of this song
Composer not found.
37 views
    • ½ Tone
    • Am
    • Bbm
    • Bm
    • Cm
    • C#m
    • Dm
    • Ebm
    • Em
    • Fm
    • F#m
    • Gm
    • G#m
  • Add to list
    00:00 / 00:00
    OK