Cifra Club

Wizard In Black

Electric Wizard

Cifrado: Principal (guitarra y guitarra eléctrica)
Selo Cifra Club: esta cifra foi revisada para atender aos critérios oficiais da nossa Equipe de Qualidade.
tono: Am
Bpm 130 65 halved
[Riff A]5x
E|---------------------------------------------------------------------------|
B|--------------------------------------------------------------------------|
G|---12-12-12---------------------12-12-12----------------------12-12-12-----|
D|---10-10-10---------------------10-10-10----------------------10-10-10-----|
A|-0--0--0--0-\12-11~10~--------0--0--0--0-\12-11~10----------0--0--0--0-\12-|
E|--------------------12h11p12----------------------12h11p12-----------------|

E|---------------------------------------------------------------------------|
B|--------------------------------------------------------------------------|
G|-------------------12-12---------------------------------------------------|
D|-------------------10-10---------------------------------------------------|
A|11~10~-----------0--0--0-\14-13--------------------------------------------|
E|------12h11p12-----------\12-11--------------------------------------------|


[Riff B]4x

E|---------------------------------------------------------------------------|
B|--------------------------------------------------------------------------|
G|---------------------------------------------------------------------------|
D|---------------------------------------------------------------------------|
A|----7-7-7-7-7-7-7-7--8-8-8-8--5-5-5-5--7-7-7-7-7-7-7-7--8-8-8-8--5-5-5-5---|
E|----5-5-5-5-5-5-5-5--6-6-6-6--3-3-3-3--5-5-5-5-5-5-5-5--6-6-6-6--3-3-3-3---|

[Riff A]3x

E|---------------------------------------------------------------------------|
B|--------------------------------------------------------------------------|
G|---12-12-12---------------------12-12-12----------------------12-12-12-----|
D|---10-10-10---------------------10-10-10----------------------10-10-10-----|
A|-0--0--0--0-\12-11~10~--------0--0--0--0-\12-11~10----------0--0--0--0-\12-|
E|--------------------12h11p12----------------------12h11p12-----------------|

E|---------------------------------------------------------------------------|
B|--------------------------------------------------------------------------|
G|-------------------12-12---------------------------------------------------|
D|-------------------10-10---------------------------------------------------|
A|11~10~-----------0--0--0-\14-13--------------------------------------------|
E|------12h11p12-----------\12-11--------------------------------------------|

[Riff B]4x

E|---------------------------------------------------------------------------|
B|--------------------------------------------------------------------------|
G|---------------------------------------------------------------------------|
D|---------------------------------------------------------------------------|
A|----7-7-7-7-7-7-7-7--8-8-8-8--5-5-5-5--7-7-7-7-7-7-7-7--8-8-8-8--5-5-5-5---|
E|----5-5-5-5-5-5-5-5--6-6-6-6--3-3-3-3--5-5-5-5-5-5-5-5--6-6-6-6--3-3-3-3---|

[Riff Ca]

E|---------------------------------------------------------------------------|
B|--------------------------------------------------------------------------|
G|---------------------------------------------------------------------------|
D|---------------------------------------------------------------------------|
A|--7-7-7-7-7-7-7-7--8-8-8-8--5-5-5-5--7-7-7-7--8-8--5-7-5--3h5b5p3h5--------|
E|--5-5-5-5-5-5-5-5--6-6-6-6--3-3-3-3--5-5-5-5--6-6--3-5-3-------------------|

[Riff Cb]

E|---------------------------------------------------------------------------|
B|--------------------------------------------------------------------------|
G|----------------------------------------------------------5h7bp5---5-------|
D|-----------------------------------------------------------------7---------|
A|--7-7-7-7-7-7-7-7--8-8-8-8--5-5-5-5--7-7-7-5--8-8--5-7-5-------------------|
E|--5-5-5-5-5-5-5-5--6-6-6-6--3-3-3-3--5-5-5-5--6-6--3-5-3-------------------| j,h

[Riff C]

E|---------------------------------------------------------------------------|
B|--------------------------------------------------------------------------|
G|---------------------------------------------------------------------------|
D|---------------------------------------------------------------------------|
A|-7-7-7-7-7-7-7-7--8-8-8-8--5-5-5-5-----------------------------------------|
E|-5-5-5-5-5-5-5-5--6-6-6-6--3-3-3-3-----------------------------------------|



************************************

| \  Slide down
| ~  Vibrato
| h  Hammer-on
| p  Pull-off
| b  Bend
Otros videos de esta canción
    11 exhibiciones
      • ½ Tono
      • Am
      • Bbm
      • Bm
      • Cm
      • C#m
      • Dm
      • Ebm
      • Em
      • Fm
      • F#m
      • Gm
      • G#m
    • Agregar a la lista

    Afinação da cifra

    Afinador online

      Ops (: Contenido disponible solo en portugués.
      OK