Cifra Club

Como En El Cielo

Elevation Worship

Cifrado: Principal (guitarra y guitarra eléctrica)
Já pensou em usar uma coleção de roupas do Cifra Club? Responda as perguntas abaixo e nos ajude nessa missão! →
tono: C
[Intro] G  D  G  D 
        G  D  G  D 
        G  D  G  D 
        G  D  G  D 

[Primeira Parte]

G                  D       A
 La atmósfera cambiando está
G                D    A
  Tu Espíritu está aquí
G              D    A
  Es evidente tu mover
G                D    A
  Tu Espíritu está aquí

[Refrão]

  G
Llena este lugar
            A   Bm7
Derramando Tu amor
              F#m/A
Tu amor me envuelve
 G
He venido por Ti
              A   Bm7
A Tus brazos de amor
              F#m/A
Tu amor me envuelve

[Primeira Parte]

G                  D       A
 La atmósfera cambiando está
G                D    A
  Tu Espíritu está aquí
G              D    A
  Es evidente tu mover
G                D    A
  Tu Espíritu está aquí

[Refrão]

  G
Llena este lugar
            A   Bm7
Derramando Tu amor
              F#m/A
Tu amor me envuelve
 G
He venido por Ti
              A   Bm7
A Tus brazos de amor
              F#m/A
Tu amor me envuelve

( G  A  Bm7  A )

[Ponte]

G                     A     Bm7
   Que tu poder, descienda hoy
           F#m/A
Venga Tu reino
G                         A  Bm7
  Que se haga aquí, Tu voluntad
             F#m/A
Como en el cielo

[Solo]

E|-----------------------------------------------------|
B|-7-----10-----------7------12------------------------|
G|---4------11--9b8-----4--------11--9r8---------------|
D|-----------------------------------------------------|
A|-----------------------------------------------------|
E|-----------------------------------------------------|

E|-----------------------------------------------------|
B|--7------10------------7---7---7---7-----------------|
G|----4-------11--9b8~~~---6---6---6---6---------------|
D|-----------------------------------------------------|
A|-----------------------------------------------------|
E|-----------------------------------------------------|

E|-----------------------------------------------------|
B|--7-----7-----10------------7-----7------12----------|
G|----4-----4------11--9b8------4-----4--------11--9r8-|
D|-----------------------------------------------------|
A|-----------------------------------------------------|
E|-----------------------------------------------------|

E|-----------------------------------------------------|
B|--7-----7-----10------------7---7---7---7------------|
G|----4-----4------11--9b8~~~---6---6---6---6-7--------|
D|-----------------------------------------------------|
A|-----------------------------------------------------|
E|-----------------------------------------------------|

( G  D  A  Bm7  A )

 G               D   A
Milagros pueden suceder
 G             D    A
Tu Espíritu está aquí
G            D    A
Es evidente tu mover
 G             D    A
Tu Espíritu está aquí
 G               D   A
Milagros pueden suceder
 G             D    A
Tu Espíritu está aquí
G            D    A
Es evidente tu mover
 G             D    A
Tu Espíritu está aquí
Compositor não encontrado.
Colaboración y revisión:
6.515 vistas
    • ½ Tono
    • A
    • Bb
    • B
    • C
    • Db
    • D
    • Eb
    • E
    • F
    • F#
    • G
    • Ab
  • Agregar a la lista

    0 comentarios

    Ver todos los comentarios
    00:00 / 00:00
    Outros vídeos desta música
    Repetir Calidad Automático
    Outros vídeos desta música
    00:00 / 00:00
    Automático
    OK