Cifra Club

Eu Sou Completa

Eli Soares

Cifrado: Principal (guitarra y guitarra eléctrica)
tono: A
        Bm      A#m     F#m/A      Fm/G#
E|-----10--------9---------7--------6------|
B|-----12--------11--------7--------6------|
G|-----11--------10--------6--------5------| 
D|-----9---------8---------7--------6------|
A|-----------------------------------------|
E|-----------------------------------------|

Riff 1
E|-------------------------------------------------|
B|-------------------------------------------------|
G|----------------------------9p7------------------| 
D|-----9p7------------------9-----9------7h9---7h9-|
A|---9-------9-----7-7h9---7---------9-7-----7-----|
E|-7-----------10----------------------------------|

Riff 2
E|------------------------|
B|------------------------|
G|------------------------| 
D|-----9p7----------------|
A|---9-------9-----7-7h9--|
E|-7-----------10---------|

E|------------------------------------------------|
B|--10---10----------12-9----10---10--------12-9--|
G|--9h11-9h11--11p9--------9h11-9h11--11p9--------| 
D|------------------------------------------------|
A|------------------------------------------------|
E|------------------------------------------------|

                 Bm
Eu sou mais que vencedor
              F#m/A
Eu sou resposta de oração
                Bm
A minha mãe sempre orava
                              F#m/A
Dizendo meu Deus tem misericórdia
                   Bm  A#m  Bm
Ai Jesus me encontrou
         F#m/A            Fm/G#  F#m/A
Me lavou com graça e glória
                  Bm  A#m  Bm
Tirou meu cativeiro
                        F#m/A  Fm/G#  F#m/A
Me deu novas veste de louvor pra cantar

E|-----------------------------------------------|
B|--------------------------------------------7/-|
G|------9-----------------9-------------5h7p5----| 
D|--7h9----7-7--7h9---7h9----7-7--7h9------------|
A|-----------------------------------------------|
E|-----------------------------------------------|

( Bm7(9)  F#m7  Em7  F#m7 )

Eu sou o que a Bíblia diz que Eu sou
Eu tenho o que a Bíblia diz que eu tenho
Eu faço o que a Bíblia diz que eu posso fazer
Bm  C#m  E    C#m  Bm  E
La ra, la ra,        la ra!
Bm  C#m  E    C#m  Bm  E
Oh, yah yah, oh yoh
Oh, yah yah, oh yoh
Oh, yah yah, oh yoh
00:00 / 00:00
Otros videos de esta canción
Repetir
Otros videos de esta canción
Compositor no encontrado.
Colaboración y revisión:
  • luiz
71 vistas
    • ½ Tono
    • A
    • Bb
    • B
    • C
    • Db
    • D
    • Eb
    • E
    • F
    • F#
    • G
    • Ab
  • Agregar a la lista

    0 comentarios

    Ver todos los comentarios
    00:00 / 00:00
    OK