Cifra Club

Saudade de Ti

Eliana Ribeiro

Tablatura: Principal (guitarra)
reproducciones 389
Tono: Em
[Intro] G  D/F#m  Em  D  C  G
        G  D/F#m  Em  D  C  G

               Am        G/B C
Estava com saudade de Ti
               G
Estava com saudade de Ti
     G/B   Am       G/B    C                       G
Eu me afastei não te procurei quando eu mais precisava
               Am        G/B C
Estava com saudade de Ti
               G
Estava com saudade de Ti
     G/B   Am       G/B    C                       G
Eu me afastei não te procurei quando eu mais precisava

          Am    G/B     C                      G
Mas eu voltei, pois eu sei que aqui é o meu lugar
          Am    G/B     C                             G
Mas eu voltei, pois eu sei que sem Ti eu não posso ficar!

      G/B  C       D   Em                      G
Mas eu voltei, pois eu sei que aqui é o meu lugar
      G/B  Em      D/F# G/B         C                 D
Mas eu voltei, pois eu sei que sem Ti eu não posso ficar!

[Solo] G  F#m  Em  C  D

    G                               F#m
E|-7b8r7-----7b8r7------7b8r7------10b12r10-----------|
B|-------8-5-------8-5--------8-------------13~-------|
G|----------------------------------------------------|
D|----------------------------------------------------|
A|----------------------------------------------------|
E|----------------------------------------------------|
                   E                             Am
E|--10b12r10------7b8r7-------------------------------|
B|-----------13~--------8-5-------------8-10p8-10-----|
G|-------------------------------5-7-9----------------|
D|---------------------------5-7----------------------|
A|----------------------------------------------------|
E|----------------------------------------------------|
          D               Am
E|------------7-8-10-10b12~---------------------------|
B|-8-10b-8~-------------------------------------------|
G|----------------------------------------------------|
D|----------------------------------------------------|
A|----------------------------------------------------|
E|----------------------------------------------------|

  G/B            Am     C
Recebe a minha Adoração
              G
Recebe o meu coração
            Am         G/B  C                    G
É o meu sagrado, o mais valioso que eu posso Te dar

  G/B           Am         C
Recebe a minha Adoração
              E
Recebe o meu coração
          Am            G/B  C                   B
É o meu sagrado, o mais valioso que eu posso Te dar
Acordes para:
    Colaboración y revision:

    0 comentarios

      mostrar más comentarios

      ¿Conseguiste tocar?

      2tocaron2aún no

      ¡Graba un vídeo tocando Saudade de Ti y envianoslo!

      00:00 / 00:00
      outros vídeos desta música
      repetirqualidadeAutomático
      Outro vídeos desta música
        00:00 / 00:00
        OK