Cifra Club

Força e Vitória

Eliana Ribeiro

Tablatura: Principal (guitarra)
reproducciones 1.097
Tono: Bm
[Intro]  Bm7/4  Bm7  A/B  A13  A  Em7  F#4  F#7

[Solo]

E|--------------------------0-----------------------------------|
B|------5--3---2--0--2--3---------5/7--5--3--2-3/5--3--2--0-2-0-|
G|--------------------------------------------------------------|
D|------5--4---2--2---------------5/7--5--4--2-3/5--4--2--0-2-0-|
A|----2------2------------------0---------0---------------------|
E|---------------------------------------------0-------0--------|

E|-------------------2--------------|
B|----------------2--2--------------|
G|-----3--------3----3--------------|
D|------------0---------------------|
A|-----4----4-----------------------|
E|---2---------------2--------------|

( Bm7/4  Bm7  A/B  A13  A  Em7  F#4  F#7 )

E|--------------------------0-----------------------------------|
B|------5--3---2--0--2--3---------5/7--5--3--2-3/5--3--2--0-2-0-|
G|--------------------------------------------------------------|
D|------5--4---2--2---------------5/7--5--4--2-3/5--4--2--0-2-0-|
A|----2------2------------------0---------0---------------------|
E|---------------------------------------------0-------0--------|

E|-------------------2--------------|
B|----------------2--2--------------|
G|-----3--------3----3--------------|
D|------------0---------------------|
A|-----4----4-----------------------|
E|---2---------------2--------------|

      Em             A
Todo joelho se dobrará
        D7+     A/C#   Bm
E toda língua proclamará
     Em          F#      Bm
Que Jesus Cristo é o Senhor

      Em             A
Todo joelho se dobrará
        D7+     A/C#   Bm
E toda língua proclamará
     Em          F#      Bm
Que Jesus Cristo é o Senhor

        Em   Em/D  A/C#
Nada poderá me abalar
        D7+  A/C#    Bm7
Nada poderá me derrotar
         C#m7(b5)     F#
Pois minha força e vitória
        Bm  A/C#    B/Eb  B7
Tem um nome É    Jesus

        Em   Em/D  A/C#
Nada poderá me abalar
          D7+   D/F#    G7+
Nada poderá me derrotar
            C#m7(b5)    F#
Pois minha força e vitória
     Bm7
É Jesus

( Bm7/4  Bm7  A/B  A13  A  Em7  F#4  F#7 )

         Em        A
Quero viver tua palavra
            D7+     A/C#  Bm
Quero ser cheio do teu espírito
           Em    F#          Bm
Mas só te peço, livra-me do mal
         Em        A
Quero viver tua palavra
            D7+     A/C#  Bm
Quero ser cheio do teu espírito
           Em    F#          Bm
Mas só te peço, livra-me do mal

        Em   Em/D  A/C#
Nada poderá me abalar
        D7+  A/C#    Bm7
Nada poderá me derrotar
         C#m7(b5)     F#
Pois minha força e vitória
        Bm  A/C#    B/Eb  B7
Tem um nome É    Jesus

        Em   Em/D  A/C#
Nada poderá me abalar
          D7+   D/F#    G7+
Nada poderá me derrotar
            C#m7(b5)    F#
Pois minha força e vitória
     Bm7
É Jesus

 Em     A         Bm
Je....eeeee.....eeeesus!
 Em     A         Bm
Je....eeeee.....eeeesus!
 Em     A         Bm
Je....eeeee.....eeeesus!
 Em     A         Bm
Je....eeeee.....eeeesus!

0 comentarios

mostrar más comentarios

¿Conseguiste tocar?

7 tocaron 3 aún no

¡Graba un vídeo tocando Força e Vitória y envianoslo!

00:00 / 00:00
outros vídeos desta música
repetir qualidade Automático
Outros vídeos desta música
00:00 / 00:00
Automático
OK