Cifra Club

Glória a Deus Nas Alturas

Eliana Ribeiro

Cifrado: Principal (guitarra y guitarra eléctrica)
tono: D
[Intro] D9  C9  D9  C9  D9  C9

   D9                  C9
E|---------0---------0---------0--------0---|
B|-----3---------3---------3---------3------|
G|---2--------2----------0--------0---------|
D|-0---------0------------------------------|
A|--------------------3-------3-------------|
E|------------------------------------------|

   D9                        C9
E|------------------------------------------|
B|------------------------------------------|
G|-14-14-14-14--12-11-12-11--9-9-7-9--------|
D|------------------------------------------|
A|-12-12-12-12--10-9--10-9---7-7-5-7--------|
E|------------------------------------------|

   D9                        C9
E|------------------------------------------|
B|------------------------------------------|
G|-14-14-14-14--12-11-12-11--9-9-7-9--------|
D|------------------------------------------|
A|-12-12-12-12--10-9--10-9---7-7-5-7--------|
E|------------------------------------------|

[Primeira Parte] 

  D9                 C9
Glória a Deus nas alturas
   G
E paz na Terra
                     D9
Aos homens por Ele amados
             C9
Senhor Deus, rei dos céus
 G                D9
Deus Pai Todo Poderoso

          Am  D9
Nós vos louva__mos
             Am  D9
Nós vos bendize__mos
           Am  D9
Nós vos adora__mos
               Am  D9
Nós vos glorifica__mos
                C9
Nós vos damos graças
      G            D9
Por vossa imensa glória

[Segunda Parte] 

               C9
Senhor Jesus Cristo
 G       D9
Filho Unigênito
                 C9
Senhor Deus, Cordeiro de Deus
 G            D9
Filho de Deus Pai

 Am                  G
Vós, que tirais o pecado do mundo
 C9               D9
Tende piedade de nós
 Am                  G
Vós, que tirais o pecado do mundo
C9               D9
Acolhei a nossa súplica
 Am                  G
Vós, que estais à direita do Pai
 C9               D9
Tende piedade de nós

              Am  D9
Só vós sois o Sa_nto
              Am  D9
Só vós, o Senhor
             C9              D9
Só vós, o Altíssimo, Jesus Cristo
 E              A
Com o Espírito Santo

                 G      D9
Na glória de Deus Pai amém!
                 G      D9
Na glória de Deus Pai amém!
                 G      D9
Na glória de Deus Pai amém!
                 G      D9
Na glória de Deus Pai amém!
00:00 / 00:00
Otros videos de esta canción
Repetir
Otros videos de esta canción
Composición de Fábio Roniel
12.717 vistas
    • ½ Tono
    • A
    • Bb
    • B
    • C
    • Db
    • D
    • Eb
    • E
    • F
    • F#
    • G
    • Ab
  • Agregar a la lista

    0 comentarios

    Ver todos los comentarios
    00:00 / 00:00
    OK