Cifra Club

No Puedo

Elis Paprika

Cifrado: Principal (guitarra y guitarra eléctrica)
tono: A
   1                   2
E|----| E----
B|-10-| B-10-
G|-9--| G-9--     ESTO ES EL INTRO SE TOCA 4 VECES
D|-0--| D-11-
A|----| A-0--
E|----| E----

  1                 2
   no puedo contigo

  1                 2
   no puedo sin ti

  1                 2
   no puedes comigo

  1             2
   no puedes sin mi

      D5             A5       E5
   pero no no no no no no te vas tan facil

      D5             A5       E5
   pero no no no no no no te vas de mi


E|------------------6/10-9-7-9-7-------------------6/10-12-9-|
B|-9h10p9--8h9p8--6---------------9h10p9--8h9p8--6-----------|
G|-----------------------------------------------------------|

  1                 2
   no puedo contigo

  1                  2
   no puedes sin mi

  1                  2
   no puedes conmigo

  1             2
   no puedes sin mi


      D5             A5       E5
   pero no no no no no no te vas tan facil

      D5             A5       E5
   pero no no no no no no te vas de mi

      D5             A5       E5
   pero no no no no no no te vas tan facil

      D5             A5       E5               F#5
   pero no no no no no no te vas y no te vas de mi


      D5             A5       E5               F#5
               no te vas     y no te vas      de mi


      D5             A5       E5
               no te vayas    no no no no no


 esto se acompaña kon D5  A5  y E5
E|-------------------------------------------------------------|
B|-10-10-10-10-10-12-12-12-12-14-X2--10-10-10-10-12-12-12-X2---|
G|-------------------------------------------------------------|

E|--------------------------------------------------------------|
B|-10-10-10-10-10-12-12-12-12-14-X2--10-10-10-10-12-12-12-------|
G|--------------------------------------------------------------|

E|--------------------------------------------------------------|
B|-10-10-10-10-10-10-10-10-10-10--5-----------------------------|
G|--------------------------------------------------------------|


 bueno pues eso todo y no se olviden de visitar hunucma kuando vengan
 epor YUKATAN
 AHHHHHHHHH  Y ARRIBA LOS TIGD SSSSSSSSSSS.
00:00 / 00:00
Otros videos de esta canción
Repetir
Otros videos de esta canción
Compositor no encontrado.
    • ½ Tono
    • A
    • Bb
    • B
    • C
    • Db
    • D
    • Eb
    • E
    • F
    • F#
    • G
    • Ab
  • Agregar a la lista

    0 comentarios

    Ver todos los comentarios

    ¿Lograste tocar?

    0 Tocaron 0 Aún no

    ¡Graba un video tocando No Puedo y envíanoslo!

    00:00 / 00:00
    OK