Cifra Club

Como Nossos Pais

Elis Regina

Cifrado: Principal (guitarra y guitarra eléctrica)
tono: D
[Primeira Parte]

                                 Bm               
Não quero lhe falar meu grande amor 
Em
   Das coisas que aprendi nos discos
A               A/B           A/C#                                             
  Quero lhe contar como eu vivi 
                        D7M
E tudo que aconteceu comigo
   Bm
Viver é melhor que sonhar
      Em
E eu sei que o amor é uma coisa boa
A             A/B              A/C#                                
  Mas também sei que qualquer canto 

É menor do que a vida 
         D7M   
De qualquer pessoa

[Tab - Primeira Parte]

Parte 1 de 7
   Bm             Em
E|-2-------------------7----7/9--9--9\7----7-----------|
B|-3-------------------7----7/9--9--9\7----7-----------|
G|-4-------------------7----7/9--9--9\7----7-----------|
D|-4--------------2------------------------------------|
A|-2--------------2------------------------------------|
E|---------2b3r2--0--0----0-------------0-----7b8r7----|

Parte 2 de 7
   A      A/B        A/C# 
E|-----------------------------------------------------|
B|-2---------------------------------------------------|
G|-2----------2----------2-----------------------------|
D|-2--------2----------2-------------------------------|
A|-0----0-2-------2--4-------0-2-4---------------------|
E|-----------------------------------------------------|

Parte 3 de 7
   D7M
E|-----------------------------------------------------|
B|------2-----2h3p2-----2h3p2--------------------------|
G|-2---------------------------2-----------------------|
D|-0--4-----4---------4-----------4--0-----------------|
A|-----------------------------------------------------|
E|-----------------------------------------------------|

Parte 4 de 7
   Bm                       
E|-2-------2------5-----5p2----------------------------|
B|-3-------2h3----3-----3------------------------------|
G|-4-------4------2-----2------------------------------|
D|-4-------4------4------------------------------------|
A|-2-----2-----2---------------------------------------|
E|--------------------------2b3r2----------------------|

Parte 5 de 7
    Em
E|----------7----7/9--9--9\7----7----------------------|
B|----------7----7/9--9--9\7----7----------------------|
G|----------7----7/9--9--9\7----7----------------------|
D|-2---------------------------------------------------|
A|-2---------------------------------------------------|
E|-0------0----0-------------0-----7b8r7---------------|

Parte 6 de 7
   A      A/B        A/C# 
E|-----------------------------------------------------|
B|-2---------------------------------------------------|
G|-2------------2----------2---------------------------|
D|-2----------2----------2-----------------------------|
A|-0----0-2-------2--4---------0-2-4-------------------|
E|-----------------------------------------------------|

Parte 7 de 7
   D7M
E|-----------------------------------------------------|
B|------2-----2h3p2-----2h3p2--------------------------|
G|-2---------------------------2-----------------------|
D|-0--4-----4---------4-----------4--0-----------------|
A|-------------------------------------4---------------|
E|-----------------------------------------------------|

[Segunda Parte]

    D        D7M      D7
Por isso cuidado meu bem
                 G7M
Há perigo na esquina
A          A/B    A/C#  
  Eles venceram e o sinal 
                  D7M
Está fechado pra nós 
                 A7(4)  A7
Que somos jovens
 D        D/F#      D7/A    
Para abraçar seu irmão 
      D7        G7M
E beijar sua menina na rua
A              A/B             A/C# 
  É que se fez     o seu braço
                     D
O seu lábio e a sua voz

[Tab - Segunda Parte]

Parte 1 de 6
   D   D7M    D7       G7M
E|------------2---0----2-----2-----2------2------------|
B|-------2----1-----1--3-------3-----3-----------------|
G|-2----------2--------4---------4-----4---------------|
D|-0---4----0---0------0-------------------------------|
A|---------------------x---------------------2b3r2-----|
E|---------------------3---3---------------------------|

Parte 2 de 6
   A      A/B        A/C# 
E|-----------------------------------------------------|
B|-2---------------------------------------------------|
G|-2------------2----------2---------------------------|
D|-2----------2----------2-----------------------------|
A|-0----0-2-------2--4---------0-2-4-------------------|
E|-----------------------------------------------------|

Parte 3 de 6
   D7M           A7(4)     A7
E|-2------2---0----------------------------------------|
B|-2------2---0--------3------2------------------------|
G|-2------2---0--------0------0------------------------|
D|-0---4---------------2------2------------------------|
A|---------------0--0------0-----0---------------------|
E|-----------------------------------------------------|

Parte 4 de 6
   D     D/F#        D7/A     D7
E|-2-------------------2-------------------------------|
B|-3-------------------1-------------------------------|
G|-2----------------2----------------------------------|
D|-0--0----------------------0-------------------------|
A|----------------0-------0----------------------------|
E|-------2-----2---------------------------------------|

Parte 5 de 6
   G7M
E|-2-----2-----2--------2------------------------------|
B|-3-------3-------3-----------------------------------|
G|-4---------4-------4---------------------------------|
D|-0---------------------------------------------------|
A|-x-----------------------2b3r2-----------------------|
E|-3---3-----------------------------------------------|

Parte 6 de 6

   A      A/B        A/C#           D
E|----------------------------------2------------------|
B|-2--------------------------------3--3--5b6r5-3-5-3--|
G|-2-----------2----------2---------2------------------|
D|-2---------2----------2-----------0------------------|
A|-0---0-2-------2--4--------0-2-4---------------------|
E|-----------------------------------------------------|

[Terceira Parte]

            G7         C7       D7  
Você me pergunta pela minha paixão
       B7            E7
Digo que estou encantada 
         A7        D7 
Com uma nova invenção
        D/F#          G7
Eu vou ficar nesta cidade

            C7         D7
Não vou voltar pro sertão
           B7              E7
Pois vejo vir vindo no vento 
             A7       D7
O cheiro de nova estação
          D/F#      G        E/G#
Eu sinto tudo na ferida viva         
            A7(4)  A7
Do meu coração

[Quarta parte]

 D      D/F#                G7M  G6              
Já faz tempo eu vi você na rua
           D      D/F#         G7M   G6
Cabelo ao vento, gente jovem reunida
      D         D/F#    
Na parede da memória 
   G      E/G#          A7(4)      A7 
Essa lembrança é o quadro que dói mais

[Ataque]        D5                                 
         Minha dor é perceber que 
    G5
Apesar de termos feito 
 D5              G5
Tudo que fizemos
       D5             F#5
Ainda somos os mesmos  
     G5   G#5  A5
E vivemos
       D5             D/F#
Ainda somos os mesmos 
     G     E/G#        A7(4)  A7
E vivemos como nossos pais

[Tab - Ataque]

Parte 1 de 2
      D5          G5             D5          G5
E|-------x--x----------x--x---------x--x---------x--x--|
B|-------x--x----------x--x---------x--x---------x--x--|
G|-6--7--x--x----------x--x---6--7--x--x---------x--x--|
D|-x--x--x--x---4--5---x--x---x--x--x--x---4--5--x--x--|
A|-4--5--x--x---x--x---x--x---4--5--x--x---x--x--x--x--|
E|-------x--x---2--3---x--x---------x--x---2--3--x--x--|

Parte 2 de 2
     D5      F#5    G5    G#5 A5      D5
E|-----------------------------------------------------|
B|-----------------------------------------------------|
G|-6--7---7---------------------------7----------------|
D|-x--x---x--4---4--5---5--6--7-------x----------------|
A|-4--5---5--x---x--x---x--x--x-------5----------------|
E|-----------2---2--3---3--4--5------------------------|

[Quinta Parte]

D        D/F#          G7M       G6
  Nossos ídolos ainda são os mesmos
       D         D/F#        G7M  G6
E as aparências não enganam não
      D              D/F#
Você diz que depois deles
 G    E/G#    A7(4)       A7
Não apareceu mais ninguém

[Ataque]       D5            
         Você pode até dizer 
               G5
Que eu tô por fora
                      D5      G5
Ou então que eu tô inventando
         D5              F#5
Mas é você que ama o passado
           G5  G#5  A5 
E que não vê
     D5              D/F# 
É você que ama o passado 
           G        E/G#  A7(4)     A7
E que não vê que o novo  sempre vem

[Tab - Ataque]

Parte 1 de 2
      D5          G5             D5          G5
E|-------x--x----------x--x---------x--x---------x--x--|
B|-------x--x----------x--x---------x--x---------x--x--|
G|-6--7--x--x----------x--x---6--7--x--x---------x--x--|
D|-x--x--x--x---4--5---x--x---x--x--x--x---4--5--x--x--|
A|-4--5--x--x---x--x---x--x---4--5--x--x---x--x--x--x--|
E|-------x--x---2--3---x--x---------x--x---2--3--x--x--|

Parte 2 de 2
     D5      F#5    G5    G#5 A5      D5
E|-----------------------------------------------------|
B|-----------------------------------------------------|
G|-6--7---7---------------------------7----------------|
D|-x--x---x--4---4--5---5--6--7-------x----------------|
A|-4--5---5--x---x--x---x--x--x-------5----------------|
E|-----------2---2--3---3--4--5------------------------|

[Sexta parte]

 D        D/F#                  G7M  G6                     
Hoje eu sei que quem me deu a ideia 
             D          D/F#    G7M  G6
De uma nova consciência e juventude
       D   D/F#
Tá em casa    
        G     E/G#   
Guardado por Deus    
    A7(4)          A7
Contando vil metal

[Ataque]        D5                                       
         Minha dor é perceber 
        G5
Que apesar de termos feito 
 D5                     G5
Tudo, tudo, tudo que fizemos
           D5             F#5 
Nós ainda somos os mesmos 
     G5   G#5  A5
e vivemos
           D5             F#5 
Nós ainda somos os mesmos 
     G5   G#5  A5
e vivemos
       D        D/F#
Ainda somos os mesmos 
     G          A7     G  D/F#  Em  D   
e vivemos como nossos pa____________is

[Tab - Ataque Sexta Parte]

Parte 1 de 3
      D5          G5             D5          G5
E|-------x--x----------x--x---------x--x---------x--x--|
B|-------x--x----------x--x---------x--x---------x--x--|
G|-6--7--x--x----------x--x---6--7--x--x---------x--x--|
D|-x--x--x--x---4--5---x--x---x--x--x--x---4--5--x--x--|
A|-4--5--x--x---x--x---x--x---4--5--x--x---x--x--x--x--|
E|-------x--x---2--3---x--x---------x--x---2--3--x--x--|

Parte 2 de 3
     D5      F#5    G5    G#5 A5
E|-----------------------------------------------------|
B|-----------------------------------------------------|
G|-4--5---5--------------------------------------------|
D|-x--x---x--2---2--3---3--4--5------------------------|
A|-4--5---5--x---x--x---x--x--x------------------------|
E|-----------2---2--3---3--4--5------------------------|

Parte 3 de 3
   D5     F#5    G5    G#5 A5
E|-----------------------------------------------------|
B|-----------------------------------------------------|
G|-5---5-----------------------------------------------|
D|-x---x--2---2--3---3--4--5---------------------------|
A|-5---5--x---x--x---x--x--x---------------------------|
E|--------2---2--3---3--4--5---------------------------|
00:00 / 00:00
Otros videos de esta canción
Repetir
Otros videos de esta canción
Composición de Antonio Carlos Belchior
10.979 exhibiciones
  • Simplificar cifrado
    • ½ Tono
    • A
    • Bb
    • B
    • C
    • Db
    • D
    • Eb
    • E
    • F
    • F#
    • G
    • Ab
  • Agregar a la lista
    00:00 / 00:00
    OK