Cifra Club

You Dont Know Me

Elizabeth Gillies

Cifrado: Principal (guitarra y guitarra eléctrica)
Selo Cifra Club: esta cifra foi revisada para atender aos critérios oficiais da nossa Equipe de Qualidade.
tono: Em
INTRO

      G5                                                         Em
E|-------------|------|----------|------|----------|---------|------------|-----|
B|-------------|------|----------|------|----------|---------|------------|-----|
G|-------------|------|----------|------|----------|---------|------------|-----|
D|--5-5-5-5----|--5-5-|--5-5-5-5-|--5-5-|--5-5-5-5-|--5-7----|--2-2-2-2---|-2-2-|
A|--5-5-5-5----|--5-5-|--5-5-5-5-|--5-5-|--5-5-5-5-|--5-7----|--2-2-2-2---|-2-2-|
E|--3-3-3-3----|--3-3-|--3-3-3-3-|--3-3-|--3-3-3-3-|--3-5----|--0-0-0-0---|-0-0-|

E|---------|------|----------|------|
B|---------|------|----------|------|
G|---------|------|----------|------|
D|-2-2-2-2-|--2-2-|--2-2-2-2-|--2-7-|
A|-2-2-2-2-|--2-2-|--2-2-2-2-|--2-7-|
E|-0-0-0-0-|--0-0-|--0-0-0-0-|--0-5-| Repeat X3

Verse

      G5                                                         Em
E|-------------|------|----------|------|----------|---------|------------|-----|
B|-------------|------|----------|------|----------|---------|------------|-----|
G|-------------|------|----------|------|----------|---------|------------|-----|
D|--5-5-5-5----|--5-5-|--5-5-5-5-|--5-5-|--5-5-5-5-|--5-7----|--2-2-2-2---|-2-2-|
A|--5-5-5-5----|--5-5-|--5-5-5-5-|--5-5-|--5-5-5-5-|--5-7----|--2-2-2-2---|-2-2-|
E|--3-3-3-3----|--3-3-|--3-3-3-3-|--3-3-|--3-3-3-3-|--3-5----|--0-0-0-0---|-0-0-|

E|---------|------|----------|------|
B|---------|------|----------|------|
G|---------|------|----------|------|
D|-2-2-2-2-|--2-2-|--2-2-2-2-|--2-7-|
A|-2-2-2-2-|--2-2-|--2-2-2-2-|--2-7-|
E|-0-0-0-0-|--0-0-|--0-0-0-0-|--0-5-| Play Along to Lyrics

Chrorus
     G5               B5             Em               B#5
E|----------|-----|--------|-----|----------|-----|-----------|-----|
B|----------|-----|--------|-----|----------|-----|-----------|-----|
G|----------|-----|-4-4-4-4|-4-4-|----------|-----|--5-5-5-5--|-5-5-|
D|--5-5-5-5-|-5-5-|-4-4-4-4|-4-4-|--2-2-2-2-|-2-2-|--5-5-5-5--|-5-5-|
A|--5-5-5-5-|-5-5-|-2-2-2-2|-2-2-|--2-2-2-2-|-2-2-|--3-3-3-3--|-3-3-| Repeat X2
E|--3-3-3-3-|-3-3-|--------|-----|--0-0-0-0-|-0-0-|-----------|-----|

Refrain

E|--3---3-2---2-3---3-2---2----------|
B|----3-----2-----3-----2------------|
G|-----------------------------------|
D|-----------------------------------|
A|-----------------------------------|
E|-------------------------| Repeat--| X2

Slow Chorus

E|------------------------------------------|
B|------------------------------------------|
G|------------------------------------------|
D|--------------4---4---------------5---5---|
A|----5---5---2---2---2---2---2---3---3---3-|
E|--3---3---3-----------0---0---0-----------|
Otros videos de esta canción
    13 exhibiciones
      • ½ Tono
      • Am
      • Bbm
      • Bm
      • Cm
      • C#m
      • Dm
      • Ebm
      • Em
      • Fm
      • F#m
      • Gm
      • G#m
    • Agregar a la lista

    Afinación de cifrado

    Afinador online

      OK