Cifra Club

See You Again

Elle King

Cifrado: Principal (guitarra y guitarra eléctrica)
Selo Cifra Club: esta cifra foi revisada para atender aos critérios oficiais da nossa Equipe de Qualidade.
tono: F#
INTRO: 
 Gb Gb B B Gb Gb  Gb  Gb
 Abm Abm Abm Abm  Ebm Ebm  B B
 Gb Gb B B Gb Gb  Gb  Gb
 Abm Abm Abm Abm  Ebm Ebm


ALTERNATIVE INTRO: 
(This is not how it is actually played but sounds good)

E|----------------------------------------------------|
B|----------------------------------------------------|
G|------8---------------------------------------------|
D|-8-11---11-8-----------8-11-8-----------------------|
A|-------------9-(9)-(9)---------11-9--(9)--(9)-(9)---|
E|----------------------------------------------------|

E|----------------------------------------------------|
B|----------------------------------------------------|
G|------8---------------------------------------------|
D|-8-11---11-8--------8---8-11-8----------------------|
A|-------------9-9h11------------11-9--(9)--(9)-(9)---|
E|----------------------------------------------------|


VERSE:
 Gb        B        Gb
You were standing there

Abm          Ebm  B
Fire in your eyes

Gb      B      Gb
As you held me in

        Abm             Ebm   B
Said, "Sorry, I didn't write"

 Gb        B     Gb
We've got seven days

Abm             Ebm  B
'Til we say goodbye

 Gb      B        Gb
Back to separate ways

               Db        Gb   Db7
I'll miss you more this time.


CHORUS:
    B    Ebm  Gb
So won't you stay

B          Gb
 'Til the morning

B           Gb               Ebm7
 I've been frozen since that night 

              Ab  Gb
You sang with me,

 B  Ebm   Gb
One more day

B            Gb
 For you to hold me

B              Bbm        Gb
'Cause I don't know when I'll

 B        Gb Gb  B B  Gb Gb
See you again.


INSTRUMENTAL:
Ebm Ebm  Abm Abm Abm Abm
Ebm Ebm B B
Gb Gb B B Gb Gb Gb Gb
Abm Abm Abm Abm
Ebm Ebm  B B


VERSE:
 Gb     B     Gb
How was I to guess

     Abm             Ebm   B
I'd still be on your mind?

  Gb        B        Gb
Enough to bring you here

     Abm            Ebm   B
And prove I wasn't right

Gb        B       Gb
We don't need to know

     Abm         Ebm    B
The future isn't ours

 Gb      B       Gb
When we both let go

      Db              Gb  Db7
I'll hear you in the bars.


OUTRO:
    Gb
So won't you stay

B         Gb     B
 Til the morning

           Gb                Ebm
I've been frozen since that night 

              Ab
You sang with me,

 B       Gb
One more day 

B            Gb
 For you to hold me

B              Bbm       Gb    B7       Gb
'Cause I don't know when I'll see you again.
00:00 / 00:00
Otros videos de esta canción
Repetir
Otros videos de esta canción
34 exhibiciones
    • ½ Tono
    • A
    • Bb
    • B
    • C
    • Db
    • D
    • Eb
    • E
    • F
    • F#
    • G
    • Ab
  • Agregar a la lista

Afinación de cifrado

Afinador online

    00:00 / 00:00
    OK