Cifra Club

Love Me Like You Do

Ellie Goulding

Cifrado: Principal (guitarra y guitarra eléctrica)
Selo Cifra Club: esta cifra foi revisada para atender aos critérios oficiais da nossa Equipe de Qualidade.
tono: Ab (con acordes en la forma de G) Capotraste en 1ª casa
[Intro] G  G/B  Em7  C9  D4  Em7

[Primeira Parte]

            G
You're the light, you're the night
            G/B
You're the color of my blood
            Em7
You're the cure, you're the pain
                               C9
You're the only thing I wanna touch
        D4
Never knew that 
                  Em7
It could mean so much, so much

            G
You're the fear, I don't care
            G9/B
Cause I've never been so high
        Em7
Follow me to the dark
                               C9
Let me take you past our satellites
         D4
You can see the world 
                Em7
You brought to life, to life

[Refrão]

    G
So love me like you do
       G9/B
Lo-lo-love me like you do
 Em7
Love me like you do
       C9
Lo-lo-love me like you do
 Am7
Touch me like you do
       Em7                 D4
To-to-touch me like you do
              D
What are you waiting for

[Segunda Parte]

       G
Fading in, fading out
       G9/B
On the edge of paradise
      Em7
Every inch of your skin is a holy grail 
             C9
I've got to find
      D4
Only you can set 
             Em7
My heart on fire, on fire, yeah

      G               G9/B
I'll let you set the pace
      Em7
Cause I'm not thinking straight
    C9
My head spinning around 
   D4                 Em7
I can't see clear no more

What are you waiting for

[Refrão]

 G
Love me like you do
       G9/B
Lo-lo-love me like you do
 Em7
Love me like you do
       C9
Lo-lo-love me like you do
 Am7
Touch me like you do
       Em7                 D4
To-to-touch me like you do
              D
What are you waiting for

 G
Love me like you do
       G9/B
Lo-lo-love me like you do
 Em7
Love me like you do
       C9
Lo-lo-love me like you do
 Am7
Touch me like you do
       Em7                 D4
To-to-touch me like you do
              D
What are you waiting for

[Segunda Parte]

( G  G/B  Em7 )

      G               G/B
I'll let you set the pace
      Em7
Cause I'm not thinking straight
    C9
My head spinning around 
   D4                 Em7
I can't see clear no more

What are you waiting for

[Refrão]

 G
Love me like you do
       G9/B
Lo-lo-love me like you do
 Em7
Love me like you do
       C9
Lo-lo-love me like you do
 Am7
Touch me like you do
       Em7                 D4
To-to-touch me like you do
              D
What are you waiting for

 G
Love me like you do
       G9/B
Lo-lo-love me like you do
 Em7
Love me like you do
       C9
Lo-lo-love me like you do
 Am7
Touch me like you do
       Em7                 D4
To-to-touch me like you do
              D
What are you waiting for

( G  G9/B  Em7  C9 )

[Intro e Primeira Estrofe]

Parte 1 de 4

    G                     G/B
E|------------------------------------------|
B|------------------------------------------|
G|---0---0---0---0---0----0---0---0---0---0-|
D|-----0-------0---0--------0-------0---0---|
A|----------------------2-------2-----------|
E|-3-------3--------------------------------|

Parte 2 de 4

     Em7
E|------------------------------------------|
B|------------------------------------------|
G|---0---0---0---0---0----0---0---0---0---0-|
D|-----0-------0---0--------0-------0---0---|
A|------------------------------------------|
E|-0-------0------------0-------0-----------|

Parte 3 de 4

     C9                   D4
E|------------------------------------------|
B|------------------------------------------|
G|---0---0---0---0---0----0---0---0---0---0-|
D|-----0-------0---0--------0-------0---0---|
A|-3-------3------------5-------5-----------|
E|------------------------------------------|

Parte 4 de 4

     Em7
E|------------------------------------------|
B|------------------------------------------|
G|---0---0---0---0---0----0---0---0---0---0-|
D|-----0-------0---0--------0-------0---0---|
A|-7-------7------------7-------7-----------|
E|------------------------------------------|

[Segunda Parte]

Parte 1 de 2

    G                     G/B
E|------------------------------------------|
B|------------------------------------------|
G|---0---0---0---0---0----0---0---0---0---0-|
D|-----0-------0---0--------0-------0---0---|
A|----------------------2-------2-----------|
E|-3-------3--------------------------------|

Parte 2 de 2

     Em7
E|------------------------------------------|
B|------------------------------------------|
G|---0---0---0---0---0----0---0---0---0---0-|
D|-----0-------0---0--------0-------0---0---|
A|------------------------------------------|
E|-0-------0------------0-------0-----------|

Parte 1 de 4

    G                     G/B
E|------------------------------------------|
B|------------------------------------------|
G|---0---0---0---0---0----0---0---0---0---0-|
D|-----0-------0---0--------0-------0---0---|
A|----------------------2-------2-----------|
E|-3-------3--------------------------------|

Parte 2 de 4

     Em7
E|------------------------------------------|
B|------------------------------------------|
G|---0---0---0---0---0----0---0---0---0---0-|
D|-----0-------0---0--------0-------0---0---|
A|------------------------------------------|
E|-0-------0------------0-------0-----------|

Parte 3 de 4

     C9                   D4
E|------------------------------------------|
B|------------------------------------------|
G|---0---0---0---0---0----0---0---0---0---0-|
D|-----0-------0---0--------0-------0---0---|
A|-3-------3------------5-------5-----------|
E|------------------------------------------|

Parte 4 de 4 (com variação)

     Em7
E|------------------------------------------|
B|------------------------------------------|
G|---0---0---0---0---0----------------------|
D|-----0-------0---0------------------------|
A|-7-------7------------7-------------------|
E|------------------------------------------|
Otros videos de esta canción
    361.449 exhibiciones
    • Simplificar cifrado
      • ½ Tono
      • A
      • Bb
      • B
      • C
      • Db
      • D
      • Eb
      • E
      • F
      • F#
      • G
      • Ab
    • Agregar a la lista

    Afinación de cifrado

    Afinador online

      Capítulos
      • Tocando a Música
      • Dicas Iniciais / Equipamentos
      • Acordes da Introdução e Primeira Estrofe
      • Tocando a Introdução e Primeira Estrofe
      • Ensinando a Introdução e Primeira Estrofe
      • Introdução e Primeira Estrofe - Parte 1 de 4
      • Introdução e Primeira Estrofe - Parte 2 de 4
      • Introdução e Primeira Estrofe - Parte 3 de 4
      • Introdução e Primeira Estrofe - Parte 4 de 4
      • Acordes da Segunda Estrofe da Primeira Parte
      • Tocando a Segunda Estrofe
      • Ensinando o Ritmo da Segunda Estrofe
      • Acordes do Refrão
      • Tocando o Refrão
      • Ensinando o Ritmo do Refrão
      • Dicas para a Segunda Parte
      • Tocando a Segunda Parte
      • Dicas para o Segundo Refrão
      • Tocando o Segundo Refrão
      • Dicas para a repetição da Segunda Parte
      • Tocando a repetição da Segunda Parte
      • Ensinando a Variação da Segunda Parte
      • Dicas para o Ultimo Refrão e Final
      • Tocando o Ultimo Refrão e Final
      • Encerramento
      • Ficha Técnica / Erros de Gravação
      OK