Cifra Club

All Shook Up

Elvis Presley

Tab de bajo: Principal
                                                                           bless...       wrong...
g-----------------|-----------------|-----------------|-----------------|--------------|--2-----------|
d--------2--4--2--|--------2--4--2--|--------2--4--2--|--------2--4--2--|--------2--4--|-----4--2-----|
a--0--4-----------|--0--4-----------|--0--4-----------|--0--4-----------|--0--4--------|-----------4--|
e-----------------|-----------------|-----------------|-----------------|--------------|--------------|

   itching...     fuzzy...       friends...        weird...       love         all shook up
|--------------|--2-----------|-----------------|--2-----------|------------|---------------|
|--------2--4--|-----4--2-----|--------2--4--2--|-----4--2-----|------------|---------------|
|--0--4--------|-----------4--|--0--4-----------|-----------4--|--0---------|---------------|
|--------------|--------------|-----------------|--------------|------------|---------------|

                                                               hands...       knees...
|-----------4--|-----------6--|--------------|--------------|--------------|-----------------|
|-----4--7-----|-----6--9-----|--7--4--------|--------2--4--|--------2--4--|--------2--4--2--|
|--5-----------|--7-----------|--------7--4--|--0--4--------|--0--4--------|--0--4-----------|
|--------------|--------------|--------------|--------------|--------------|-----------------|

   can't...       own...            do you...   have...        love      all shook up
|--2-----------|--------------|--------------|--------------|---------|---------------|
|-----4--2-----|--------2--4--|--------2-----|--------2--4--|---------|---------------|
|-----------4--|--0--4--------|--0--4-----4--|--0--4--------|--0------|---------------|
|--------------|--------------|--------------|--------------|---------|---------------|

                                                               please...      on my...
                                                               tongue...      try to...
|-----------4--|-----------6--|--------------|--------------|-----------4--|--5--4--------|
|-----4--7-----|-----6--9-----|--7--4--------|--------2--4--|*----4--7-----|--------7--4--|
|--5-----------|--7-----------|--------7--4--|--0--4--------|*-5-----------|--------------|
|--------------|--------------|--------------|--------------|--------------|--------------|

   little...      feeling...     I'm near...    I love...      heart...    scares...
   insides...     leaf...        only...        body of...     have...     love...
|--------------|--------------|-----------4--|--5--4--------|-----------|------------|
|--------2--4--|--------2--4--|-----4--7-----|--------7--4--|-----------|------------|
|--0--4--------|--0--4--------|--5-----------|--------------|--7--------|------------|
|--------------|--------------|--------------|--------------|-----------|------------|

   touched...     chill...          kisses...                     proud...       buttercup...
|--------------|-----------------|--2-----------|--------------|--------------|--------------|
|--------2--4--|--------2--4--2--|-----4--2-----|--------2--4--|--------2-----|--------2--4--|
|--0--4--------|--0--4-----------|-----------4--|--0--4--------|--0--4-----4--|--0--4--------|
|--------------|-----------------|--------------|--------------|--------------|--------------|

   love     all shook up                                1____________________________
|--------|---------------|--------------|--------------|--------------|--------------|
|--------|---------------|-----4--7--4--|-----6--9--6--|--7--4--------|--------2----*|
|--0-----|---------------|--5-----------|--7-----------|--------7--4--|--0--4-----4-*|
|--------|---------------|--------------|--------------|--------------|--------------|

2_____________________________
|--------------|--------------|-----------4--|-----------6--|--------------|----------|
|--7--4--------|--------2-----|-----4--7-----|-----6--9-----|--7--4--------|----------|
|--------7--4--|--0--4-----4--|--5-----------|--7-----------|--------7--4--|0---0--0--|
|--------------|--------------|--------------|--------------|--------------|----------|
reproducciones 133
Composição: Elvis Presley / Otis Blackwell Colaboración y revision:
  • valdir júnior

0 comentarios

mostrar más comentarios

¿Conseguiste tocar?

0 tocaron 0 aún no

¡Graba un vídeo tocando All Shook Up y envianoslo!

00:00 / 00:00
outros vídeos desta música
repetir qualidade Automático
Outros vídeos desta música
00:00 / 00:00
Automático
OK