Cifra Club

Aloha Oe

Elvis Presley

Tablatura: Principal (guitarra)
Tom: C
Tabbed by:Kim L


Tuning: standard

e|---------------------------------------|
B|-8---7--------8---12---10-------7-7/8--|
G|-7---7--------7---12---11-------6-6/7--|
D|-9---7--------9---12---12-------8-8/9--|
A|---------------------------------------|
E|---------------------------------------|

e|-------------------------------------------------------------------------|
B|--3--5--8--13--5--3--8---12---8---7--7/6---8---10-10--12--13-13--12---8--|
G|--4--5--7--12--5--4--7---12---7---7--7/6---7---11-11--12--12-12--12---7--|
D|--5--5--9--14--5--5--9---12---9---7--7/6---9---12-12--12--14-14--12---9--|
A|-------------------------------------------------------------------------|
E|-------------------------------------------------------------------------|

e|-----------------------------------|
B|--3--5--8--13--5---3-3---8-8---12--|
G|--4--5--7--14--5---4-4---7-7---12--|
D|--5--5--9--12--5---5-5---9-9---12--|
A|-----------------------------------|
E|-----------------------------------|

e|-----------------------------------------|
B|---8--7--8---12---10---7-7/8-------------|
G|---7--7--7---12---11---6-6/7---7~--------|
D|---9--7--9---12---12---8-8/9-------------|
A|------------------------------------10~--|
E|-----------------------------------------|


| /  slide up
| \  slide down
| h  hammer-on
| p  pull-off
| ~  vibrato
| +  harmonic
| x  Mute note
===============================================================================
reproducciones 391
Acordes para:

    0 comentarios

    mostrar más comentarios

    ¿Conseguiste tocar?

    2 tocaron 0 aún no

    ¡Graba un vídeo tocando Aloha Oe y envianoslo!

    00:00 / 00:00
    outros vídeos desta música
    repetir qualidade Automático
    Outros vídeos desta música
    00:00 / 00:00
    Automático
    OK