Cifra Club

Blue Suede Shoes

Elvis Presley

Tablatura: Principal (guitarra)
Tom: A
Primeira Parte:

Well it's a one for the money
A
  Two for the show
A
  Three to get ready now go, cat ,go


Refrão:

           D7(9)
But don't you step on my blue suede
      A9
Shoes
             E7(9)
You can do anything
                                   A9
But lay off of my blue suede shoes


Repete a Primeira Parte:
                           A
Well you can knock me down
                A
Step in my face
                                   A
Slander my name all over the place
                                    A
And do anything that you want to do


But ah ah, honey, lay off of them' shoes


Repete o Refrão:

           D7(9)
And don't you step on my blue suede
      A9
Shoes

             E7(9)
You can do anything
                                   A9
But lay off of my blue suede shoes

Let's go, cat!


Solo 1

1
E|----------------------------------------------------|
B|-9/10--10--10--10--10--10--10--10-------------------|
G|-8/9---9---9---9---9---9---9---9--------------------|
D|----------------------------------------------------|
A|----------------------------------------------------|
E|----------------------------------------------------|




2
E|----------------------------------------------------|
B|-9/10--10--10--10-9/10--10--10--10--10--------------|
G|-8/9---9---9---9--8/9---9---9---9---9---------------|
D|----------------------------------------------------|
A|----------------------------------------------------|
E|----------------------------------------------------|



3
E|-8b-6-----------------------------------------------|
B|------8--7-5----------------------------------------|
G|-------------7--5-6--------5------------------------|
D|--------------------7--6-7--------------------------|
A|----------------------------------------------------|
E|----------------------------------------------------|


4
E|-----5----------------------------------------------|
B|---7---8-7-5-----5----5-----5-----------------------|
G|-7-------------7----7-----7---5---------------------|
D|----------------------------------------------------|
A|----------------------------------------------------|
E|----------------------------------------------------|


5
E|---------------5------------------------------------|
B|-------------7---8-7----5---------------------------|
G|-------5-7------------7---5~------------------------|
D|-7-5-7----------------------------------------------|
A|----------------------------------------------------|
E|----------------------------------------------------|


6
E|----------------------------------------------------|
B|-------5~-------5--------5--------------------------|
G|-7-5-7----7p5-----7p5------7p5----------------------|
D|----------------------7--------7--------------------|
A|----------------------------------------------------|
E|----------------------------------------------------|


7
E|-5--------------------------------------------------|
B|---8/10~--13-10------5------------------------------|
G|----------------12~----5----------------------------|
D|-------------------------7~--5-7--------------------|
A|----------------------------------------------------|
E|----------------------------------------------------|


Ah! Walk the dog!


Repete a Primeira Parte:

                           A
Well you can burn my house
             A
Steal my car
                                      A
Drink my liquor from an old fruit jar
                                    A
And do anything that you want to do
                                      A
But ah ah, honey, lay off of my shoes


Repete o Refrão:

           D7(9)
And don't you step on my blue suede
      A9
Shoes
             E7(9)
You can do anything but lay off of my
                 A9
Blue suede shoes

Rock it!


Solo 2
1
E|-0----0--------0--0----8\---------------------------|
B|-10\--10\---10-10-10---8\---------------------------|
G|-9-\--9-\---9--9--9---------------------------------|
D|----------------------------------------------------|
A|----------------------------------------------------|
E|----------------------------------------------------|

2
E|-0----0--------0--0----8\---------------------------|
B|-10\--10\---10-10-10---8\---------------------------|
G|-9-\--9-\---9--9--9---------------------------------|
D|----------------------------------------------------|
A|----------------------------------------------------|
E|----------------------------------------------------|


3
E|-5-----8-5------------------------------------------|
B|-8b10------8-7-5---5---------------5-7--------------|
G|-----------------7---5h6-------5-7------------------|
D|-------------------------7-6-7----------------------|
A|----------------------------------------------------|
E|----------------------------------------------------|

4
E|-5--------------------------------------------------|
B|---8-7-5---5----------------------------------------|
G|---------7---5h6-------5----------------------------|
D|-----------------7-5-7---7--------------------------|
A|----------------------------------------------------|
E|----------------------------------------------------|

5
E|----------------------------5--------8--------------|
B|-----------5------------5-7---8/10~--8-10-8---5-----|
G|-------5-7---7-5----5-7---------------------9-5h6---|
D|---5-7------------7-------------------------------7\|
A|-7--------------------------------------------------|
E|----------------------------------------------------|


Repete a Primeira Parte:

Well it's a one for the money
A
  Two for the show
A
  Three to get ready now go, go ,go


Repete o Refrão:

           D7(9)
But don't you step on my blue suede
      A9
Shoes
             E7(9)
You can do anything
                                   A9
But lay off of my blue suede shoes


Parte Final:

Well It`s blue blue, blue suede shoes

blue blue, blue suede shoes, yeah

blue blue, blue suede shoes, baby

Blue blue, blue suede shoes

Well, you can do anything

But lay off of my blue suede shoes


Solo Final:
                      A
E|-8-5----------------5---------------------|
B|-----8-5-7-5--------5---------------------|
G|-------------5------6---------------------|
D|---------------7-5--7---------------------|
A|--------------------0---------------------|
E|------------------------------------------|
reproducciones 5.185
Acordes para:
    Composição: Carl Perkins Colaboración y revision:
    • Fernando Reis
    • francisco fernando

    0 comentarios

    mostrar más comentarios

    ¿Conseguiste tocar?

    25 tocaron 2 aún no

    ¡Graba un vídeo tocando Blue Suede Shoes y envianoslo!

    00:00 / 00:00
    outros vídeos desta música
    repetir qualidade Automático
    Outros vídeos desta música
    00:00 / 00:00
    Automático
    Capítulos
    • Tocando a música
    • Dicas iniciais / Equipamentos
    • Acordes da música
    • Tocando Primeira Parte e Refrão
    • Ensinando ritmo da música
    • Tocando Solo 1
    • Ensinando Solo 1
    • Tocando Solo 2
    • Ensinando Solo 2
    • Tocando Final
    • Ensinando ritmo (Variação)
    • Ensinando Solo Final (Sugestão)
    • Encerramento
    • Ficha técnica
    OK