Cifra Club

Aprenda

Burning Love

Elvis Presley

Tab de bajo: Principal
                                       INTRODUÇÃO
                                                                        
G||-----|--------------------------|--------------------------|--------|
D||-----|--------------2-----3--4--|--------------2-----3--4--|--------|
A||-----|--2-----5--5-----5--------|-----2--5--5-----5--------|--5--2--|
E||--5--|-----5--------------------|--5-----------------------|--------|


AQUI COMEÇA O VOCAL                                                                           
--------------------------|-------------------------|-------------------------|
--------------------------|-------------------------|-------------------------|
--5--5--2--0--5--5--2--0--|--------2----------2--5--|----5--2--0--5--5--2--0--|
--------------------------|--3--3-----5----5--------|-------------------------|


                                                                                
--------------------------|--------------------------|-------------------------|
--------------------------|--------------------------|-------------------------|
--5--5--2--0--7h-8--7h-8--|--5--5--2--0--5--5--2--0--|--------2----------2--5--|
--------------------------|--------------------------|--3--3-----5----5--------|


                                                                                
-------------------------|--------------------------|--------------------------|
-------------------------|--------------------------|--------------------------|
----5--2--0--5--5--2--0--|--5--5--2--0--7h-8--7h-8--|--5--5--2--0--5--5--2--0--|
-------------------------|--------------------------|--------------------------|


                                                                               
-------------------------|-------------------------|--------------------------|
-------------------------|-------------------------|--------------------------|
--------2----------2--5--|----5--2--0--5--5--2--0--|--5--5--2--0--7h-8--7h-8--|
--3--3-----5----5--------|-------------------------|--------------------------|


                                                                               
--------------------------|-------------------------|-------------------------|
--------------------------|-------------------------|-------------------------|
--5--5--2--0--5--5--2--0--|--------2----------2--5--|----5--2--0--5--5--2--0--|
--------------------------|--3--3-----5----5--------|-------------------------|


                             REFRÃO                                              
--------------------------|-----------------------|-----------------------|
--------------------------|-----------------------|-----------------------|
--5--5--2--0--7h-8--7h-8--|-----------------------|---------5----8--7--5--|
--------------------------|--7----7----5----5--3--|----7------------------|


                                                                        
-----------------------|-----------------------|-----------------------|
-----------------------|-----------------------|-----------------------|
-----------------------|---------5----8--7--5--|-----------------------|
--7----7----5----5--3--|----7------------------|--7----7----5----5--3--|


                          VIRADA NO FINAL DO REFRÃO                                                   
-----------------------|-------------------------|--------------------------|
-----------------------|-------------------------|--2--0--3--4--3-----------|
---------5----8--7--5--|--5--2--0--5----2--0-----|-----------------5--2--0--|
----7------------------|----------------------3--|--------------------------|


                                                                               
--------------------------|-------------------------|-------------------------|
--------------------------|-------------------------|-------------------------|
--5--5--2--0--5--5--2--0--|--------2----------2--5--|----5--2--0--5--5--2--0--|
--------------------------|--3--3-----5----5--------|-------------------------|


                                                                                
--------------------------|--------------------------|-------------------------|
--------------------------|--------------------------|-------------------------|
--5--5--2--0--7h-8--7h-8--|--5--5--2--0--5--5--2--0--|--------2----------2--5--|
--------------------------|--------------------------|--3--3-----5----5--------|


                                                                                
-------------------------|--------------------------|--------------------------|
-------------------------|--------------------------|--------------------------|
----5--2--0--5--5--2--0--|--5--5--2--0--7h-8--7h-8--|--5--5--2--0--5--5--2--0--|
-------------------------|--------------------------|--------------------------|


                                                                               
-------------------------|-------------------------|--------------------------|
-------------------------|-------------------------|--------------------------|
--------2----------2--5--|----5--2--0--5--5--2--0--|--5--5--2--0--7h-8--7h-8--|
--3--3-----5----5--------|-------------------------|--------------------------|


                                                                               
--------------------------|-------------------------|-------------------------|
--------------------------|-------------------------|-------------------------|
--5--5--2--0--5--5--2--0--|--------2----------2--5--|----5--2--0--5--5--2--0--|
--------------------------|--3--3-----5----5--------|-------------------------|


                              REFRÃO                                             
--------------------------|-----------------------|-----------------------|
--------------------------|-----------------------|-----------------------|
--5--5--2--0--7h-8--7h-8--|-----------------------|---------5----8--7--5--|
--------------------------|--7----7----5----5--3--|----7------------------|


                                                                        
-----------------------|-----------------------|-----------------------|
-----------------------|-----------------------|-----------------------|
-----------------------|---------5----8--7--5--|-----------------------|
--7----7----5----5--3--|----7------------------|--7----7----5----5--3--|


                         OUTRA VIRADA NO FINAL DO REFRÃO                                                  
-----------------------|--------------------------|--------------------------|
-----------------------|--------------------------|--------------------------|
---------5----8--7--5--|--5--5--2--0--5--5--2--0--|--5--5--2--0--7h-8--7h-8--|
----7------------------|--------------------------|--------------------------|


CORAL                                                                        
-----------------------|-----------------------|-----------------------|
-----------------------|-----------------------|-----------------------|
-----------------------|---------5----8--7--5--|-----------------------|
--7----7----5----5--3--|----7------------------|--7----7----5----5--3--|


                                                                        
-----------------------|-----------------------|-----------------------|
-----------------------|-----------------------|-----------------------|
---------5----8--7--5--|-----------------------|---------5----8--7--5--|
----7------------------|--7----7----5----5--3--|----7------------------|


VIRADA PRA ENTRAR DA EXTROFE                                                     
--------------------------|--11h-9---------------------|
--------------------------|---------11--9h-7-----------|
--5--5--2--0--5--5--2--0--|-------------------9--8h-7h-|
--------------------------|----------------------------|


                                                                               
--------------------------|-------------------------|-------------------------|
--------------------------|-------------------------|-------------------------|
--5--5--2--0--5--5--2--0--|--------2----------2--5--|----5--2--0--5--5--2--0--|
--------------------------|--3--3-----5----5--------|-------------------------|


                                                                                
--------------------------|--------------------------|-------------------------|
--------------------------|--------------------------|-------------------------|
--5--5--2--0--7h-8--7h-8--|--5--5--2--0--5--5--2--0--|--------2----------2--5--|
--------------------------|--------------------------|--3--3-----5----5--------|


                                                                                
-------------------------|--------------------------|--------------------------|
-------------------------|--------------------------|--------------------------|
----5--2--0--5--5--2--0--|--5--5--2--0--7h-8--7h-8--|--5--5--2--0--5--5--2--0--|
-------------------------|--------------------------|--------------------------|


                                                                               
-------------------------|-------------------------|--------------------------|
-------------------------|-------------------------|--------------------------|
--------2----------2--5--|----5--2--0--5--5--2--0--|--5--5--2--0--7h-8--7h-8--|
--3--3-----5----5--------|-------------------------|--------------------------|


                                                                               
--------------------------|-------------------------|-------------------------|
--------------------------|-------------------------|-------------------------|
--5--5--2--0--5--5--2--0--|--------2----------2--5--|----5--2--0--5--5--2--0--|
--------------------------|--3--3-----5----5--------|-------------------------|


                             REFRÃO                                              
--------------------------|-----------------------|-----------------------|
--------------------------|-----------------------|-----------------------|
--5--5--2--0--7h-8--7h-8--|-----------------------|---------5----8--7--5--|
--------------------------|--7----7----5----5--3--|----7------------------|


                                                                        
-----------------------|-----------------------|-----------------------|
-----------------------|-----------------------|-----------------------|
-----------------------|---------5----8--7--5--|-----------------------|
--7----7----5----5--3--|----7------------------|--7----7----5----5--3--|


                           COMEÇA O GROOVE DE BAIXO ( que vai até o final)                                                 
-----------------------|-------------------------|-------------------------|
-----------------------|-------------------------|-------------------------|
---------5----8--7--5--|--5--2--0--5----2--0-----|-------2--2--3--3--4--4--|
----7------------------|----------------------3--|----3--------------------|


                                                                             
------------------------|-------------------------|-------------------------|
------------3--4--------|-------------------------|-------------------------|
--5----5----------5-----|-------2--2--3--3--4--4--|--5--2--0--5----2--0-----|
---------------------3--|----3--------------------|----------------------3--|


                                                                              
-------------------------|-------------------------|-------------------------|
-------------------------|-------------------------|-------------------------|
-------2--2--3--3--4--4--|--5--2--0--5----2--0-----|-------2--2--3--3--4--4--|
----3--------------------|----------------------3--|----3--------------------|


                                                                              
-------------------------|-------------------------|-------------------------|
-------------------------|-------------------------|-------------------------|
--5--2--0--5----2--0-----|-------2--2--3--3--4--4--|--5--2--0--5----2--0-----|
----------------------3--|----3--------------------|----------------------3--|


                                                                              
-------------------------|-------------------------|-------------------------|
-------------------------|-------------------------|-------------------------|
-------2--2--3--3--4--4--|--5--2--0--5----2--0-----|-------2--2--3--3--4--4--|
----3--------------------|----------------------3--|----3--------------------|


                                                                              
-------------------------|-------------------------|-------------------------|
-------------------------|-------------------------|-------------------------|
--5--2--0--5----2--0-----|-------2--2--3--3--4--4--|--5--2--0--5----2--0-----|
----------------------3--|----3--------------------|----------------------3--|


                                                                               
-------------------------|--------------5-7-5-5--------|----------------------|
-------------------------|--------5--7-----------7--6--|--5-------------------|
-------2--2--3--3--4--4--|--5--8-----------------------|-----8--7--6----------|
----3--------------------|-----------------------------|----------------------|

h = "hammer on" ou "pull of"

Esse baixo foi estraído de uma  outra verção da burning love, e alguma coisa foi 
modificada com o intuito de preencher bem a música (para a música não ficar "morta"),
pois, a banda do Elvis tinha um monte de instrumento que a preenchia. Para tocar com
uma banda de formação simples (1 ou 2 guitarras, 1 baixo, bateria e voz), recomendo
esta linha de baixo que se encaixa perfeitamente com a bateria original.

_______________________________________________________
Contribuição: Vagner Pichinatti(pichinatti@666hotmail.com)
Composição de Dennis Linde
183 reproducciones

0 comentarios

Ver todos os comentários

¿Conseguiste tocar?

0 Tocaram 0 Ainda não

Grave um vídeo tocando Burning Love e nos envie!

00:00 / 00:00
outros vídeos desta música
repetir qualidade Automático
Outros vídeos desta música
00:00 / 00:00
Automático
OK