Cifra Club

Do Not Disturb

Elvis Presley

Tablatura: Principal (guitarra)
Tom: D
Standard tuning. 

    Intro: 
                   D         G         A    Tacet 
    e||-----------2---2-2---3---3-3---0--| 
    B||-----------3---3-3---0---0-0---2--| 
    G||-----------2---2-2---0---0-0---2--| 
    D||-----------0---0-0---0---0-0---2--| 
    A||--3--2--0------------2---2-2---0--| 
    E||---------------------3---3-3------| 

                  D        G          A   Tacet 
    w||-----------2---2-2---3---3-3---0------------------|| 
    B||-----------3---3-3---0---0-0---2------------------|| 
    G||-----------2---2-2---0---0-0---2------------------|| 
    D||-----------0---0-0---0---0-0---2------------------|| 
    A||--3--2--0------------2---2-2---0------0--2--4-----|| 
    E||---------------------3---3-3----------------------|| 

  D               G             A       G  A 
    Let's take the phone off the hook 
  D          G          A               G  A 
    Turn the lights      way down low 
  D      G            A        G  A 
    Baby put down that book 
  D          G       A   (Tacet) 
    Tell the maid to go 

  A    G      A       G 
    Do not disturb 
  A          G           A      G 
    Hang the sign on the door 
  F#m 
    Do not disturb 
                      B 
    It's time to make love 
                E  (Tacet) 
    And I can't wait anymore 

   D         G             A       G  A 
    I'll just pull down the blind 
   D    G   A     G     A 
    Now come over here 
   D        G            A      G  A 
    I've got one thing in mind 
   D          G           A 
    Let's get comfortable dear 

  A    G      A       G 
    Do not disturb 
  A          G    A      G 
    Hang the sign on the door 
  F#m 
    Do not disturb 
                      B 
    It's time to make love 
                E  (Tacet) 
    And I can't wait anymore 

  D      G      A        G    A 
    Everything's right tonight 
  D      G    A              G     A 
    Mmmm, it's great when we kiss 
  D         G    A        G     A 
    Now your arms hold me tight 
  D      G         G     A 
    Let's stay like this 
  D    G   A      G    A 
    Mmm mmm mm mmm mmmm 
  D    G   A      G    A 
    Mmm mmm mm mmm mmmm
reproducciones 80
Acordes para:

    0 comentarios

    mostrar más comentarios

    ¿Conseguiste tocar?

    0 tocaron 0 aún no

    ¡Graba un vídeo tocando Do Not Disturb y envianoslo!

    00:00 / 00:00
    outros vídeos desta música
    repetir qualidade Automático
    Outros vídeos desta música
    00:00 / 00:00
    Automático
    OK