Cifra Club

Resolution

Emigrate

Cifrado: Principal (guitarra y guitarra eléctrica)
tono: D
Drop D

main riff)
(e)-----------------------------------------------|
(b)-----------------------------------------------|
(g)-----------------------------------------------|
(d)--4-5-\-4-2-/-4----4-5-\-4-2-/-4--2-/-4-4-4-4--|
(a)--4-5-\-4-2-/-4----4-5-\-4-2-/-4--2-/-4-4-4-4--|
(d)--4-5-\-4-2-/-4----4-5-\-4-2-/-4--2-/-4-4-4-4--| x3

(e)---------------------------------------------------|
(b)---------------------------------------------------|
(g)---------------------------------------------------|
(d)--4-5-\-4-2-/-4----4-5-\-4-2-/-4-----4-/-10-10-10--|
(a)--4-5-\-4-2-/-4----4-5-\-4-2-/-4-----4-/-10-10-10--|
(d)--4-5-\-4-2-/-4----4-5-\-4-2-/-4-----4-/-10-10-10--| x1

(chorus)
(e)----------------------------------------------------------|
(b)----------------------------------------------------------|
(g)----------------------------------------------------------|
(d)--2-/-4------2---2---2-/-4-----4-/-5-------5---5---5-/-4--|
(a)--2-/-4------2---2---2-/-4-----4-/-5-------5---5---5-/-4--|
(d)--2-/-4------2---2---2-/-4-----4-/-5-------5---5---5-/-4--| x1

(lead)  with wah wah pedal
(e)-----------------------------------------------|
(b)-----------------------------------------------|
(g)-----------------------------------------------|
(d)--4-5-\-4-2-/-4----4-5-\-4-2-/-4--2-/-4-4-4-4--|
(a)-----------------------------------------------|
(d)-----------------------------------------------| x4

(bridge)
(e)---------------|
(b)---------------|
(g)---------------|
(d)--0----2----4--|
(a)--0----2----4--|
(d)--0----2----4--| x2

(e)--------------------------------------|
(b)--------------------------------------|
(g)--------------------------------------|
(d)--0----2----4----5-5-5-5-5-5-5-5-5-5--|
(a)--0----2----4----5-5-5-5-5-5-5-5-5-5--|
(d)--0----2----4----5-5-5-5-5-5-5-5-5-5--| x1

(main riff)
(e)-----------------------------------------------|
(b)-----------------------------------------------|
(g)-----------------------------------------------|
(d)--4-5-\-4-2-/-4----4-5-\-4-2-/-4--2-/-4-4-4-4--|
(a)--4-5-\-4-2-/-4----4-5-\-4-2-/-4--2-/-4-4-4-4--|
(d)--4-5-\-4-2-/-4----4-5-\-4-2-/-4--2-/-4-4-4-4--| x3

(e)---------------------------------------------------|
(b)---------------------------------------------------|
(g)---------------------------------------------------|
(d)--4-5-\-4-2-/-4----4-5-\-4-2-/-4-----4-/-10-10-10--|
(a)--4-5-\-4-2-/-4----4-5-\-4-2-/-4-----4-/-10-10-10--|
(d)--4-5-\-4-2-/-4----4-5-\-4-2-/-4-----4-/-10-10-10--| x1

(chorus)
(e)-------------------------------------------------------------|
(b)-------------------------------------------------------------|
(g)-------------------------------------------------------------|
(d)--2-/-4------2---2---2-/-4---(4)--4-/-5-------5---5---5-/-4--|
(a)--2-/-4------2---2---2-/-4---(4)--4-/-5-------5---5---5-/-4--|
(d)--2-/-4------2---2---2-/-4---(4)--4-/-5-------5---5---5-/-4--| x1


(lead)  with wah wah pedal
(e)-----------------------------------------------|
(b)-----------------------------------------------|
(g)-----------------------------------------------|
(d)--4-5-\-4-2-/-4----4-5-\-4-2-/-4--2-/-4-4-4-4--|
(a)-----------------------------------------------|
(d)-----------------------------------------------| x4

(bridge)
(e)---------------|
(b)---------------|
(g)---------------|
(d)--0----2----4--|
(a)--0----2----4--|
(d)--0----2----4--| x2

(e)--------------------------------------|
(b)--------------------------------------|
(g)--------------------------------------|
(d)--0----2----4----5-5-5-5-5-5-5-5-5-5--|
(a)--0----2----4----5-5-5-5-5-5-5-5-5-5--|
(d)--0----2----4----5-5-5-5-5-5-5-5-5-5--| x1

(main riff)
(e)-----------------------------------------------|
(b)-----------------------------------------------|
(g)-----------------------------------------------|
(d)--4-5-\-4-2-/-4----4-5-\-4-2-/-4--2-/-4-4-4-4--|
(a)--4-5-\-4-2-/-4----4-5-\-4-2-/-4--2-/-4-4-4-4--|
(d)--4-5-\-4-2-/-4----4-5-\-4-2-/-4--2-/-4-4-4-4--| x3

(e)---------------------------------------------------|
(b)---------------------------------------------------|
(g)---------------------------------------------------|
(d)--4-5-\-4-2-/-4----4-5-\-4-2-/-4-----4-/-10-10-10--|
(a)--4-5-\-4-2-/-4----4-5-\-4-2-/-4-----4-/-10-10-10--|
(d)--4-5-\-4-2-/-4----4-5-\-4-2-/-4-----4-/-10-10-10--| x1

(main riff)
(e)-----------------------------------------------|
(b)-----------------------------------------------|
(g)-----------------------------------------------|
(d)--4-5-\-4-2-/-4----4-5-\-4-2-/-4--2-/-4-4-4-4--|
(a)--4-5-\-4-2-/-4----4-5-\-4-2-/-4--2-/-4-4-4-4--|
(d)--4-5-\-4-2-/-4----4-5-\-4-2-/-4--2-/-4-4-4-4--| x3

(e)---------------------------------------------------|
(b)---------------------------------------------------|
(g)---------------------------------------------------|
(d)--4-5-\-4-2-/-4----4-5-\-4-2-/-4-----4-/-10-10-10--|
(a)--4-5-\-4-2-/-4----4-5-\-4-2-/-4-----4-/-10-10-10--|
(d)--4-5-\-4-2-/-4----4-5-\-4-2-/-4-----4-/-10-10-10--| x1

(chorus)
(e)----------------------------------------------------------|
(b)----------------------------------------------------------|
(g)----------------------------------------------------------|
(d)--2-/-4------2---2---2-/-4-----4-/-5-------5---5---5-/-4--|
(a)--2-/-4------2---2---2-/-4-----4-/-5-------5---5---5-/-4--|
(d)--2-/-4------2---2---2-/-4-----4-/-5-------5---5---5-/-4--| x1

(behind solo riff)
(e)-----------|
(b)-----------|
(g)-----------|
(d)-----------|
(a)-----------|
(d)--2-/-15b--|

Solo

E|---------------------------|
B|---------------------------|
G|---------------------------|
D|------11b12(slow relase)---|
A|---------------------------|
D|---------------------------|

E|-------------------------------7~------------------7~-6^-----------------|
B|---8^~-7~---7^~-8^~-7^---7^~-7~-----8p7h8-8-7----7~------8--7------------|
G|----------9-----------9----------------------9---------------9~----------|
D|-------------------------------------------------------------------------|
A|-------------------------------------------------------------------------|
D|-------------------------------------------------------------------------|

E|-------------------------------------------------------------------------|
B|---15-17b19----19---19-19---19---19-19---19-19---19-19--19-19r17---------|
G|-------------------------------------------------------------------------|
D|-------------------------------------------------------------------------|
A|-------------------------------------------------------------------------|
D|-------------------------------------------------------------------------|

E|----------------------------------------------------|
B|----------------------------------------------------|
G|---16~--19b21--(chopped by a noise gate)--18~-------|
D|----------------------------------------------------|
A|----------------------------------------------------|
D|----------------------------------------------------|

E|-------------------------------------------------------------------------|
B|-------------------------------------------------------------------------|
G|---14~--13~--------------------------------------------------------------|
D|-------------11~-----9~--7~--6~----4~--6~--7~---7/9-9~---9/11~--/2-------|
A|-------------------------------------------------------------------------|
D|-------------------------------------------------------------------------|


(main riff)
(e)-----------------------------------------------|
(b)-----------------------------------------------|
(g)-----------------------------------------------|
(d)--4-5-\-4-2-/-4----4-5-\-4-2-/-4--2-/-4-4-4-4--|
(a)--4-5-\-4-2-/-4----4-5-\-4-2-/-4--2-/-4-4-4-4--|
(d)--4-5-\-4-2-/-4----4-5-\-4-2-/-4--2-/-4-4-4-4--| x3

(bridge)
(e)---------------|
(b)---------------|
(g)---------------|
(d)--0----2----4--|
(a)--0----2----4--|
(d)--0----2----4--| x2

(e)--------------------------------------|
(b)--------------------------------------|
(g)--------------------------------------|
(d)--0----2----4----5-5-5-5-5-5-5-5-5-5--|
(a)--0----2----4----5-5-5-5-5-5-5-5-5-5--|
(d)--0----2----4----5-5-5-5-5-5-5-5-5-5--| x1

(main riff)
(e)-----------------------------------------------|
(b)-----------------------------------------------|
(g)-----------------------------------------------|
(d)--4-5-\-4-2-/-4----4-5-\-4-2-/-4--2-/-4-4-4-4--|
(a)--4-5-\-4-2-/-4----4-5-\-4-2-/-4--2-/-4-4-4-4--|
(d)--4-5-\-4-2-/-4----4-5-\-4-2-/-4--2-/-4-4-4-4--| x3


(e)---------------------------------------------------|
(b)---------------------------------------------------|
(g)---------------------------------------------------|
(d)--4-5-\-4-2-/-4----4-5-\-4-2-/-4-----4-/-10-10-10--|
(a)--4-5-\-4-2-/-4----4-5-\-4-2-/-4-----4-/-10-10-10--|
(d)--4-5-\-4-2-/-4----4-5-\-4-2-/-4-----4-/-10-10-10--| x1

(main riff)
(e)-----------------------------------------------|
(b)-----------------------------------------------|
(g)-----------------------------------------------|
(d)--4-5-\-4-2-/-4----4-5-\-4-2-/-4--2-/-4-4-4-4--|
(a)--4-5-\-4-2-/-4----4-5-\-4-2-/-4--2-/-4-4-4-4--|
(d)--4-5-\-4-2-/-4----4-5-\-4-2-/-4--2-/-4-4-4-4--| x3

(e)---------------------------------------------------|
(b)---------------------------------------------------|
(g)---------------------------------------------------|
(d)--4-5-\-4-2-/-4----4-5-\-4-2-/-4-----4-/-10-10-10--|
(a)--4-5-\-4-2-/-4----4-5-\-4-2-/-4-----4-/-10-10-10--|
(d)--4-5-\-4-2-/-4----4-5-\-4-2-/-4-----4-/-10-10-10--| x1
00:00 / 00:00
Otros videos de esta canción
Repetir
Otros videos de esta canción
Composición de Richard Z. Kruspe
Colaboración y revisión:
  • raisa
26 vistas
    • ½ Tono
    • A
    • Bb
    • B
    • C
    • Db
    • D
    • Eb
    • E
    • F
    • F#
    • G
    • Ab
  • Agregar a la lista

    0 comentarios

    Ver todos los comentarios

    ¿Lograste tocar?

    1 Tocaron 0 Aún no

    ¡Graba un video tocando Resolution y envíanoslo!

    00:00 / 00:00
    OK