Cifra Club

3 Am

Eminem

Cifrado: Principal (guitarra y guitarra eléctrica)
Selo Cifra Club: esta cifra foi revisada para atender aos critérios oficiais da nossa Equipe de Qualidade.
tono: C#m
[Intro]
E|---------------------------------------------|
B|---------------------------------------------|
G|---------------------------------------------|
D|--3--5--6--0--6------------------------------|
A|--3--5--6--0--6------------------------------|
E|--3--5--6--0--6------------------------------|

[Main Riff]
E|--------------------------------------------------------------------|
B|--------------------------------------------------------------------|
G|--------5p4h5--------5p4h5--------5p4h5---------5p4h5p4-------------|
D|---7-7----------7-7---------7-7----------7-7------------------------|
A|---7-7----------7-7---------7-7----------7-7------------------------|
E|---7-7----------7-7---------7-7----------7-7------------------------|
PM   * *          * *         * *          * *
(Some vibrato on the g string there, especially the last little bit)


[Variantion Riff] (Beginning of the Second Verse)
E|-------------------------------------------------------------|
B|-------------------------------------------------------------|
G|-------------------------------------------------------------|
D|----7-7---7-7---7-7---7-7---5/-------------------------------|
A|----7-7---7-7---7-7---7-7---5/-------------------------------|
E|----7-7---7-7---7-7---7-7---5/-------------------------------|
PM    * *   * *   * *   * *

[Chorus/Outro]
E|------------------------------------------------------------|
B|------------------------------------------------------------|
G|---2-2-4-5---5-7-9-9-5-3-5---10-10-9-5-5-4-2-2--2-2---------|
D|---x-x-x-x---x-x-x-x-x-x-x---x--x--x-x-x-x-x-x--2-2---------|
A|---0-0-2-3---3-5-7-7-5-3-3---8--8--7-3-3-2-0-0--0-0---------|
E|------------------------------------------------------------|



************************************

| h   Hammer-on
| p   Pull-off
| PM  Palm mute
| /   Slide up
| x   Dead note
Otros videos de esta canción
    0 exhibiciones
      • ½ Tono
      • Am
      • Bbm
      • Bm
      • Cm
      • C#m
      • Dm
      • Ebm
      • Em
      • Fm
      • F#m
      • Gm
      • G#m
    • Agregar a la lista

    Afinação da cifra

    Afinador online

      Ops (: Contenido disponible solo en portugués.
      OK