Cifra Club

8 Mile Road

Eminem

Cifrado: Principal (guitarra y guitarra eléctrica)
Selo Cifra Club: esta cifra foi revisada para atender aos critérios oficiais da nossa Equipe de Qualidade.
tono: G
Intro:
E|------------------------|----------------------------|------------|----------------------
B|------------------------|----------------------------|------------|----------------------
G|------------------------|----------------------------|------------|----------------------
D|------------------------|----------------------------|------------|----------------------
A|-----7-5---------7-5----|-----7-5---------7-5--7--8--|----5-7-----|---3-----5-2-----3----
E|--5-------8---5-------8-|--5-------8---5-------------|------------|----------------------

Refrão:
E|-9---9--9---9--9----------------------------------------
B|---9------9------9------7-10-9--10-7--7-10-9------------
G|-------------------11-9----------------------9--11-8----
D|-----------------------------------------------------11-
A|--------------------------------------------------------
E|--------------------------------------------------------
Otros videos de esta canción
    109 exhibiciones
      • ½ Tono
      • A
      • Bb
      • B
      • C
      • Db
      • D
      • Eb
      • E
      • F
      • F#
      • G
      • Ab
    • Agregar a la lista

    Afinação da cifra

    Afinador online

      Ops (: Contenido disponible solo en portugués.
      OK