Cifra Club

Berzerk

Eminem

Cifrado: Principal (guitarra y guitarra eléctrica)
Selo Cifra Club: esta cifra foi revisada para atender aos critérios oficiais da nossa Equipe de Qualidade.
tono: E
[Intro]
E|---------------------------------|
B|-----------6s8-------6s8---------|
G|---3---3---5s7--5s7--5s7---------|
D|-3-3---3---3s5--5s7--3s5--7------|
A|-3-1---1--------3s5-------7------|
E|-1 -----------------------5-5-1--|

[Verse] (x3)
E|---------------------|
B|6s8-------6s8--------|
G|5s7--5s7--5s7--------|
D|3s5--5s7--3s5--7-----|
A|-----3s5-------7-----|
E|---------------5-5-1-|

[Bridge] (x2)
E|-------------------|
B|-6s5--6s5--6s5-----|
G|-5s4--5s4--5s4-----|
D|-3s2--3s2--3s2-7-3-|
A|---------------7-3-|
E|---------------5-1-|

[Chorus] (x4)
E|-----------|
B|-----------|
G|-7-7-7-----|
D|-7-7-7-----|
A|-5-5-5-----|
E|-------5-1-|
Otros videos de esta canción
    14 exhibiciones
      • ½ Tono
      • A
      • Bb
      • B
      • C
      • Db
      • D
      • Eb
      • E
      • F
      • F#
      • G
      • Ab
    • Agregar a la lista

    Afinação da cifra

    Afinador online

      Ops (: Contenido disponible solo en portugués.
      OK