Cifra Club

Business

Eminem

Cifrado: Principal (guitarra y guitarra eléctrica)
Selo Cifra Club: esta cifra foi revisada para atender aos critérios oficiais da nossa Equipe de Qualidade.
tono: C#m
E|E|-------------------------------------------------------------------------------||
                             Business - Eminem
E|E|-------------------------------------------------------------------------------||

Tabbed by: SmoothPlaying
E-mail: robin1@vr-web.de

Tuning: Standard

The run, and the rhythm are quite difficult, so its an intermediate tab :)

Most known is the last part (melody).

Intro (SOS): just repeat the note g# like SOS signals

E|-4-4-4-4---4---4---4-4-4-|
B|-------------------------|
G|-------------------------|
D|-------------------------|
A|-------------------------|
E|-------------------------|


Its played very fast while they rap: "Holy wack, unlyrical lyrics Andre, you're fuckin' right...

                                      To the rapmobile, let's go..."



                                         these notes are played as fast as the others, of course
                                                                     || ||    || ||
                                                                     || ||    || ||
                                                                     \/ \/    \/ \/
E|----------------------------------------------------------77----77-10-10-77-10-10-14---|
B|-------------------------------------------------77----77----77------------------------|
G|-------------------------------44----44-77-44-77----77---------------------------------|
D|----------------------44----44----44---------------------------------------------------|
A|----22----22-55-22-55----55------------------------------------------------------------|
E|-22----22------------------------------------------------------------------------------|


Rhythm (Guitar 1):

E|---------------------|
B|---------------------|
G|---------------------|
D|-99-11-11-12-12-11-11| just repeat that the whole song
A|-99-9--9--9--9--9--9-|
E|-7-------------------|


Melody in the chorus (Guitar 2):

E|----------------------------------------------------------|
B|----------------------------------------------------------|
G|-11---11-9----12-11---11-9----11-9---9--------------------|
D|-----------12--------------12----------12-11----9---11-12-|
A|---------------------------------------------13-----------|
E|----------------------------------------------------------|
Otros videos de esta canción
    14 exhibiciones
      • ½ Tono
      • Am
      • Bbm
      • Bm
      • Cm
      • C#m
      • Dm
      • Ebm
      • Em
      • Fm
      • F#m
      • Gm
      • G#m
    • Agregar a la lista

    Afinação da cifra

    Afinador online

      Ops (: Contenido disponible solo en portugués.
      OK