Cifra Club

Doe Rae Me

Eminem

Cifrado: Principal (guitarra y guitarra eléctrica)
Selo Cifra Club: esta cifra foi revisada para atender aos critérios oficiais da nossa Equipe de Qualidade.
tono: C
E|E|-------------------------------------------------------------------------------||
                             Doe Rae Me - Eminem
                         (feat. D12 and Obie Trice)
E|E|-------------------------------------------------------------------------------||
Tuning: Standard


E|------------------------------------------------------------------|
B|------------------------------------------------------------------|
G|------9---10--9-------7---9---7-----------------------------------|
D|--------------------------------------10--12--10------9---10--9---|
A|--0---------------0---------------0---------------0---------------|
E|------------------------------------------------------------------|

E|------------------------------------------------------------------|
B|------------------------------------------------------------------|
G|------------------------------------------------------------------|
D|------7---9---7-------7---9---7-------7---9---7-------10--9---7---|
A|--0---------------0---------------0---------------0---------------|
E|------------------------------------------------------------------|


higher octave


E|------12--13--12------10--12--12----------------------------------|
B|--------------------------------------13--15--13------12--13--12--|
G|--12--------------12--------------12--------------12--------------|
D|------------------------------------------------------------------|
A|------------------------------------------------------------------|
E|------------------------------------------------------------------|

E|------------------------------------------------------------------|
B|------10--12--10------10--12--10------10--12--10------13--12--10--|
G|--12--------------12--------------12--------------12--------------|
D|------------------------------------------------------------------|
A|------------------------------------------------------------------|
E|------------------------------------------------------------------|
Otros videos de esta canción
    0 exhibiciones
      • ½ Tono
      • A
      • Bb
      • B
      • C
      • Db
      • D
      • Eb
      • E
      • F
      • F#
      • G
      • Ab
    • Agregar a la lista

    Afinação da cifra

    Afinador online

      Ops (: Contenido disponible solo en portugués.
      OK