Cifra Club

Fast Lane

Eminem

Cifrado: Principal (guitarra y guitarra eléctrica)
Selo Cifra Club: esta cifra foi revisada para atender aos critérios oficiais da nossa Equipe de Qualidade.
tono: B
Intro:
E|--4-6-7-6-4-11----------------------------------------------------------------------|
B|-----------4------------------------------------------------------------------------|
G|------------------------------------------------------------------------------------|
D|------------------------------------------------------------------------------------|
A|------------------------------------------------------------------------------------|
E|-6------------6---------------------------------------------------------------------|
Royce da 5'9:
E|--------------------|------------------------------|---------------------|
B|--------------------|------------------------------|---------------------|
G|--------------------|------------------------------| 4-6-8-6-4-4-6-8-6-4--|
D|--------------------| 6-8-9-8-6-6-8-9-8-6-6-8-9-8-6-|6-8-9-8-6-6-8-9-8-6--|
A|--------------------|------------------------------|---------------------|
E|6-8-9-8-6-6-8-9-8-6-| 6-8-9-8-6-6-8-9-8-6-6-8-9-8-6-|6-8-9-8-6-6-8-9-8-6--|

E|-4-4-12-12-12-9-11---------------------|
B|---------------------------------------|
G|---------------------------------------|
D|------------------6-8-9-8-6-6-8-9-8-6--|
A|---------------------------------------|
E|------------------6-8-9-8-6-6-8-9-8-6--|
Eminem part:
E|--------------------------------------------------------------------------------------|
B|--------------------------------------------------------------------------------------|
G|--------------------------------------------------------------------------------------|
D|-----------------2-6-2-6-----------------------------------------6-8-9-8-6-6-8-9-8-6--|
A|--------------------------------------------------------------------------------------|
E|-2-6-2-6-2-6-2-6-2-6-2-6-6-8-9-8-6-6-8-9-8-6-6-8-9-8-6-6-8-9-8-6-6-8-9-8-6-6-8-9-8-6--|


E|-------------------------------------------------------|
B|-------------------------------------------------------|
G|-------------------------------------------------------|
D|-------------------------------------------------------|
A|------7-7-7-4-6----7-7-7-4-6---------------------------|
E|-4-6-4----------6-6---------6-6-8-9-8-6-6--| {no music)--|
Chours:
E|----------------------------------------------------------------------------------------|
B|----------------------------------------------------------------------------------------|
G|----------------------------------------------------------------------------------------|
D|---------------------------------------------------------6-8-9-8-6-6-8-9-8-6-6-8-9-8-6--|
A|----------------------------------------------------------------------------------------|
E|-9-6-9-6-9-6-9-6-6-8-9-8-6-6-8-9-8-6-6-8-9-8-6-6-8-9-8-6-6-8-9-8-6-6-8-9-8-6-6-8-9-8-6--|

E|-----------------------------------------------------|
B|-----------------------------------------------------|
G|---------------------6-6-6-6-6-4------3-3-3-3-3-3-1--|
D|-----------------------------------------------------|
A|-----------------------------------------------------|
E|-6-8-9-8-6-6-8-9-8-6-------------9-8-6---------------|
Otros videos de esta canción
    6 exhibiciones
      • ½ Tono
      • A
      • Bb
      • B
      • C
      • Db
      • D
      • Eb
      • E
      • F
      • F#
      • G
      • Ab
    • Agregar a la lista

    Afinação da cifra

    Afinador online

      Ops (: Contenido disponible solo en portugués.
      OK