Cifra Club

Fuck You Freestyle

Eminem

Cifrado: Principal (guitarra y guitarra eléctrica)
Selo Cifra Club: esta cifra foi revisada para atender aos critérios oficiais da nossa Equipe de Qualidade.
tono: G
E|------------------------------------------------------------------|
B|---------------10---------------7--7------------------------------|
G|----9--11--12--------12-11-9----x--x------9--11--12-12-11-11--9--7|
D|--------------------------------4--4------------------------------|
A|------------------------------------------------------------------|
E|------------------------------------------------------------------|

E|--------------------------------------------------------------|
B|-7--7---------------------------7--7--10--7--7------7--7--7--7|
G|-x--x------4--5--7--9---11---12-x--x------x--x--11--x--x--x--x|
D|-4--4---------------------------4--4------4--4------4--4--4--4|
A|--------------------------------------------------------------|
E|--------------------------------------------------------------|
Otros videos de esta canción
    0 exhibiciones
      • ½ Tono
      • A
      • Bb
      • B
      • C
      • Db
      • D
      • Eb
      • E
      • F
      • F#
      • G
      • Ab
    • Agregar a la lista

    Afinação da cifra

    Afinador online

      Ops (: Contenido disponible solo en portugués.
      OK