Cifra Club

Mockingbird

Eminem

Cifrado: Principal (guitarra y guitarra eléctrica)
Selo Cifra Club: esta cifra foi revisada para atender aos critérios oficiais da nossa Equipe de Qualidade.
tono: G


E|-----------------------------------------------------------------|
B|-----------------------------------------------------------------|
G|----12-12 12 --14-12--11-11------11--9--9------------------------|
D|--9---------------------------------------9---7---------7----9---|
A|------------------------------------------------10--10-----------|
E|-----------------------------------------------------------------|

E|-------------------------------------------------------------------|
B|-------------------------------------------------------------------|
G|----12-12 12 --14-12--11-11------11--9--9--------------------------|
D|--9---------------------------------------9---7---------7----------|
A|------------------------------------------------10--10----10--9--7-|
E|-------------------------------------------------------------------|

E|----3-3--3/4-3-2-2----2-2-2-3-2-0-|-----------0----------------------------|
B|-0--------------------3---------0-|-0-0-0-0----0--0-----0------------------|
G|----------------------2-----------|-----------------2-2----2---2-2-0-------|
D|-2--------------------0-----------|------------------------0----------4-2--|
A|-----------------3----------------|-----------3----------------------------|
E|-0------------------------------0-|-------------------------------------0--|
00:00 / 00:00
Otros videos de esta canción
Repetir
Otros videos de esta canción
70.112 exhibiciones
    • ½ Tono
    • A
    • Bb
    • B
    • C
    • Db
    • D
    • Eb
    • E
    • F
    • F#
    • G
    • Ab
  • Agregar a la lista

Afinación de cifrado

Afinador online

    00:00 / 00:00
    OK