Cifra Club

Sing For The Moment Solo

Eminem

Cifrado: Principal (guitarra y guitarra eléctrica)
tono: C
Transcribed by James Hyland
Email: *


E|-------11-13-11-13------11-13----16------13-16-13----13----13--------16p13-|
B|-12b---------------12b13------13------------------16----13-----------------|
G|-------------------------------------------------------------17p16p15------|
D|---------------------------------------------------------------------------|
A|---------------------------------------------------------------------------|
E|---------------------------------------------------------------------------|

e|----13---------------------------------------------------------------------|
B|-16----16p13----13----13----------------12b13h15---------13----------------|
G|-------------16----15----15p13----15-13----------15vv-------15b16-13-15----|
D|-------------------------------15------------------------------------------|
A|---------------------------------------------------------------------------|
E|---------------------------------------------------------------------------|

e|--------------13-------------13-------16----13----13------13---------------|
B|-----------13----13-16----13----16-13----13----16----13b14-----16b18-------|
G|----13-15b-------------15--------------------------------------------------|
D|-15------------------------------------------------------------------------|
A|---------------------------------------------------------------------------|
E|---------------------------------------------------------------------------|

e|-13--------------13--------------13--------------13-------------13---------|
B|---16-13-----13----16-13-----13----16-13-----13----16-13-----13---13-16b17-|
G|--------16b17-----------16b17-----------16b17-----------16b17--------------|
D|---------------------------------------------------------------------------|
A|---------------------------------------------------------------------------|
E|---------------------------------------------------------------------------|

e|-13--13-13------------------13-------13--------------------16p13-------16--|
B|---13------17b18-13-17b18-----16b18----16b18r16vv-----------------16p13----|
G|------------------------------------------------------17p15-----15---------|
D|---------------------------------------------------------------------------|
A|---------------------------------------------------------------------------|
E|---------------------------------------------------------------------------|

e|-18vv-17b18r17---------16-13----------13-----------------------------------|
B|-----------------18-----------16---------13------------------------16------|
G|--------------------15-----------15b16------15b16r15-15vvv-13-15b17-17r15--|
D|---------------------------------------------------------------------------|
A|---------------------------------------------------------------------------|
E|---------------------------------------------------------------------------|

e|---------------------------------------------------------------------------|
B|---------------------------------------------------------------------------|
G|-15vv----17-15-16b17-15-13-15-16b17-15-13-15-16b17-15-13-15b17-15-13-15-15-|
D|---------------------------------------------------------------------------|
A|---------------------------------------------------------------------------|
E|---------------------------------------------------------------------------|

e|---------------------------------------------------------------------------|
B|-------------------------------------------------------------------16------|
G|-b17r15-13-15-15b17r15-13-15-15b17-13-15-15b17r15-13-15-15-13-15b17-17r15--|
D|---------------------------------------------------------------------------|
A|---------------------------------------------------------------------------|
E|---------------------------------------------------------------------------|

e|--13-----------------------------------------------------------------------|
B|----16p13------------------------------------------------------------------|
G|---------16p15p13-15p13--13--------------13----13-15-15b17-17r15-15-13-----|
D|-----------------------15--15p13-15vv-------15-------------------------15--|
A|---------------------------------------------------------------------------|
E|---------------------------------------------------------------------------|

e|-------------13----16vvvv--16b17-16b17-16b17-16b17-13------13------13------|
B|-------13-16----13------------------------------------16b17---16b17--------|
G|-13------------------------------------------------------------------------|
D|----15---------------------------------------------------------------------|
A|---------------------------------------------------------------------------|
E|---------------------------------------------------------------------------|

e|------13--------13---------13----------------------------------------------|
B|-16b17-12b13-16----16-12b13---12b13--------12------------------------------|
G|-----------------------------------15p13------15---------------------------|
D|----------------------------------------15-------15-13-15---13b15r13----13-|
A|---------------------------------------------------------------------15----|
E|---------------------------------------------------------------------------|

e|-------------|
B|-------------|
G|-------------|
D|-15-13-15----|
A|-------------|
E|-------------|

| b  bend
| r  release bend
| h  hammer-on
| p  pull-off
| v  vibrato

Feel free to email me with any comments or corrections.

===============================================================================
Composición de Achraf "AJ Junior" Jannusi / Eric Clapton / Tom Petty
278 vistas
    • ½ Tono
    • A
    • Bb
    • B
    • C
    • Db
    • D
    • Eb
    • E
    • F
    • F#
    • G
    • Ab
  • Agregar a la lista

    0 comentarios

    Ver todos los comentarios

    ¿Lograste tocar?

    0 Tocaron 0 Aún no

    ¡Graba un video tocando Sing For The Moment Solo y envíanoslo!

    00:00 / 00:00
    Outros vídeos desta música
    Repetir Calidad Automático
    Outros vídeos desta música
    00:00 / 00:00
    Automático
    OK