Cifra Club

Stan

Eminem

Tab de bajo: Versão 5
Album - The Marshall Mathers LP

Intro
My tea's gone cold I'm wondering why I..
got out of bed at all
The morning rain clouds up my window..
and I can't see at all
And even if I could it'll all be gray,
but your picture on my wall
It reminds me, that it's not so bad,
it's not so bad..

Verse
Dear Slim, I wrote but you still ain't callin

G---------------------------:-------------------------|
D---------------------------:-4-----------------------|
A------------------7--------:-------------------------| x3
E-----4------4--------------:-------7----6------------|

My girlfriend's pregnant too, I'm bout to be a father
If I have a daughter, guess what I'ma call her?

G--------------------------:-------------------------|
D--------------------------:-------------------------|
A---------------7------7---:--8---------7------------| x1
E-----4-------4------------:----------------7-6------|

I read about your Uncle Ronnie too I'm sorry....

G---------------------------:-------------------------|
D---------------------------:-4-----------------------|
A------------------7--------:-------------------------| x3
E-----4------4--------------:-------7----6------------|

Anyways, I hope you get this man, hit me back,
just to chat, truly yours, your biggest fan.....

G--------------------------:-------------------------|
D--------------------------:-------------------------|
A---------------7------7---:--8---------7------------| x1
E-----4-------4------------:----------------7-6------|

My tea's gone cold I'm wondering why I....

G---------------------------:-------------------------|
D---------------------------:-4-----------------------|
A------------------7--------:-------------------------| x3
E-----4------4--------------:-------7----6------------|

It reminds me, that it's not so bad,
it's not so bad....

G--------------------------:-------------------------|
D--------------------------:-------------------------|
A---------------7------7---:--8---------7------------| x1
E-----4-------4------------:----------------7-6------|

Dear Slim, you still ain't called or wrote, I hope you have a chance....

G---------------------------:-------------------------|
D---------------------------:-4-----------------------|
A------------------7--------:-------------------------| x3
E-----4------4--------------:-------7----6------------|

That's pretty shitty man - you're like his fuckin idol
He wants to be just like you man, he likes you more than I do...

G--------------------------:-------------------------|
D--------------------------:-------------------------|
A---------------7------7---:--8---------7------------| x1
E-----4-------4------------:----------------7-6------|

I ain't that mad though, I just don't like bein lied to....

G---------------------------:-------------------------|
D---------------------------:-4-----------------------|
A------------------7--------:-------------------------| x3
E-----4------4--------------:-------7----6------------|

I even got a tattoo of your name across the chest....

G--------------------------:-------------------------|
D--------------------------:-------------------------|
A---------------7------7---:--8---------7------------| x1
E-----4-------4------------:----------------7-6------|

Sometimes I even cut myself to see how much it bleeds....

G---------------------------:-------------------------|
D---------------------------:-4-----------------------|
A------------------7--------:-------------------------| x3
E-----4------4--------------:-------7----6------------|

You gotta call me man, I'll be the biggest fan you'll ever lose
We should be together too

G--------------------------:-------------------------|
D--------------------------:-------------------------|
A---------------7------7---:--8---------7------------| x1
E-----4-------4------------:----------------7-6------|

My tea's gone cold I'm wondering why I....

G---------------------------:-------------------------|
D---------------------------:-4-----------------------|
A------------------7--------:-------------------------| x3
E-----4------4--------------:-------7----6------------|

It reminds me, that it's not so bad,
it's not so bad....

G--------------------------:-------------------------|
D--------------------------:-------------------------|
A---------------7------7---:--8---------7------------| x1
E-----4-------4------------:----------------7-6------|

Dear Mister-I'm-Too-Good-To-Call-Or-Write-My-Fans....

G---------------------------:-------------------------|
D---------------------------:-4-----------------------|
A------------------7--------:-------------------------| x3
E-----4------4--------------:-------7----6------------|

Hey Slim, I drank a fifth of vodka, you dare me to drive?
You know the song by Phil Collins, "In the Air of the Night"....

G--------------------------:-------------------------|
D--------------------------:-------------------------|
A---------------7------7---:--8---------7------------| x1
E-----4-------4------------:----------------7-6------|

about that guy who coulda saved that other guy from drowning....

G---------------------------:-------------------------|
D---------------------------:-4-----------------------|
A------------------7--------:-------------------------| x3
E-----4------4--------------:-------7----6------------|

I love you Slim, we coulda been together, think about it
You ruined it now, I hope you can't sleep and you dream about it...

G--------------------------:-------------------------|
D--------------------------:-------------------------|
A---------------7------7---:--8---------7------------| x1
E-----4-------4------------:----------------7-6------|

And when you dream I hope you can't sleep and you SCREAM about it....

G---------------------------:-------------------------|
D---------------------------:-4-----------------------|
A------------------7--------:-------------------------| x3
E-----4------4--------------:-------7----6------------|

Well, gotta go, I'm almost at the bridge now
Oh shit, I forgot, how'm I supposed to send this shit out?....

G--------------------------:-------------------------|
D--------------------------:-------------------------|
A---------------7------7---:--8---------7------------| x3
E-----4-------4------------:----------------7-6------|

My tea's gone cold I'm wondering why I....

G---------------------------:-------------------------|
D---------------------------:-4-----------------------|
A------------------7--------:-------------------------| x3
E-----4------4--------------:-------7----6------------|

It reminds me, that it's not so bad,
it's not so bad....

G--------------------------:-------------------------|
D--------------------------:-------------------------|
A---------------7------7---:--8---------7------------| x1
E-----4-------4------------:----------------7-6------|


G---------------------------:-------------------------|
D---------------------------:-4-----------------------|
A------------------7--------:-------------------------| x3
E-----4------4--------------:-------7----6------------|

But what's this shit you said about you like to cut your wrists too?
I say that shit just clownin dogg....

G--------------------------:-------------------------|
D--------------------------:-------------------------|
A---------------7------7---:--8---------7------------| x1
E-----4-------4------------:----------------7-6------|


G---------------------------:-------------------------|
D---------------------------:-4-----------------------|
A------------------7--------:-------------------------| x3
E-----4------4--------------:-------7----6------------|

I hope you get to read this letter, I just hope it reaches you in time
before you hurt yourself, I think that you'll be doin just fine....

G--------------------------:-------------------------|
D--------------------------:-------------------------|
A---------------7------7---:--8---------7------------| x1
E-----4-------4------------:----------------7-6------|


G---------------------------:-------------------------|
D---------------------------:-4-----------------------|
A------------------7--------:-------------------------| x3
E-----4------4--------------:-------7----6------------|

and in the car they found a tape, but they didn't say who it was to
Come to think about, his name was.. it was you
Damn!

G--------------------------:-------------------------|
D--------------------------:-------------------------|
A---------------7------7---:--8---------7------------| x1
E-----4-------4------------:----------------7-6------|

Finished. 
I think this correct if any corrections or comments email me at screamoF*
Composición de Dido Armstrong / Marshall Mathers / Paul Herman

0 comentarios

Ver todos los comentarios

¿Lograste tocar?

0 Tocaron 0 Aún no

¡Graba un video tocando Stan y envíanoslo!

00:00 / 00:00
Outros vídeos desta música
Repetir Calidad Automático
Outros vídeos desta música
00:00 / 00:00
Automático
OK