Cifra Club

Superman

Eminem

Cifrado: Principal (guitarra y guitarra eléctrica)
Selo Cifra Club: esta cifra foi revisada para atender aos critérios oficiais da nossa Equipe de Qualidade.
tono: G
Guitar 1 (part 1)
[Intro]
E|--------------------------------------------|
B|--------------------------------------------|
G|-------2-----------0-------0----------------|
D|----2-----------2-------2----------2-------2|
A|-0-------0-2-3-------2----------2-------2---|
E|-----------------------------0-------0------|

Guitar 1 (part 2)
E|--------------------------------------------|
B|-----------------------------8------8----12-|
G|------------2-------------9-------9------9--|
D|-----0----2-----------10--------9--------9--|
A|---2----0------0--2-------------------------|
E|-3------------------------------------------|


Guitar 2 (over guitar 1 part 1)
Main riff
E|-----------------5h7p5----------------------|
B|-------5--7-7/8---------8--7--5-------------|
G|--------------------------------------------|
D|--------------------------------------------|
A|--------------------------------------------|
E|--------------------------------------------|

Guitar 2 (over guitar 1 part 2)
E|----------------7------10--8--7--------------|
B|---5--7--8--10-----10------------------------|
G|---------------------------------------------|
D|---------------------------------------------|
A|---------------------------------------------|
E|---------------------------------------------|
Otros videos de esta canción
    2.830 exhibiciones
      • ½ Tono
      • A
      • Bb
      • B
      • C
      • Db
      • D
      • Eb
      • E
      • F
      • F#
      • G
      • Ab
    • Agregar a la lista

    Afinação da cifra

    Afinador online

      Ops (: Contenido disponible solo en portugués.
      OK