Cifra Club

Superman

Eminem

Cifrado: Principal (guitarra y guitarra eléctrica)
tono: G
Guitar 1 (part 1)
Intro:
e|--------------------------------------------
B|--------------------------------------------
G|--------2---------------0---------0---------
D|-----2--------2-------2--------2----------2-
A|--0--------0-------3--------2----------2----
E|------------------------------------0-------

Guitar 1 (part 2)
e|--------------------------------------------
B|-----------------------------8------8----12-
G|---------2----------------9-------9------9--
D|------2---------2-----10--------9--------9--
A|---0---------0------------------------------
E|--------------------------------------------


Guitar 2 (over guitar 1 part 1)
Main riff:
e|--------------------------------------------
B|---5--7--8--10-12-10--8--7--5~--------------
G|--------------------------------------------
D|--------------------------------------------
A|--------------------------------------------
E|--------------------------------------------

Guitar 2 (over guitar 1 part 2)
e|----------------7------10--8--7--------------
B|---5--7--8--10-----10------------------------
G|---------------------------------------------
D|---------------------------------------------
A|---------------------------------------------
E|---------------------------------------------
Composición de Jeff Bass / Marshall Mathers / Steven King
Colaboración y revisión:
  • Gabriel Pastore
498 vistas
    • ½ Tono
    • A
    • Bb
    • B
    • C
    • Db
    • D
    • Eb
    • E
    • F
    • F#
    • G
    • Ab
  • Agregar a la lista

    0 comentarios

    Ver todos los comentarios

    ¿Lograste tocar?

    11 Tocaron 0 Aún no

    ¡Graba un video tocando Superman y envíanoslo!

    00:00 / 00:00
    Outros vídeos desta música
    Repetir Calidad Automático
    Outros vídeos desta música
    00:00 / 00:00
    Automático
    OK